  0
SECTION
  2
HEADER
  9
$ACADVER
  1
AC1009
  9
$INSBASE
 10
0.0
 20
0.0
 30
0.0
  9
$EXTMIN
 10
59.8050730227646383
 20
-31.4305308601007383
 30
0.0
  9
$EXTMAX
 10
99.702710815630823
 20
-14.1943103881007495
 30
0.0
  9
$LIMMIN
 10
0.0
 20
0.0
  9
$LIMMAX
 10
12.0
 20
9.0
  9
$ORTHOMODE
 70
     1
  9
$REGENMODE
 70
     1
  9
$FILLMODE
 70
     1
  9
$QTEXTMODE
 70
     0
  9
$MIRRTEXT
 70
     0
  9
$DRAGMODE
 70
     2
  9
$LTSCALE
 40
1.0
  9
$OSMODE
 70
   695
  9
$ATTMODE
 70
     1
  9
$TEXTSIZE
 40
0.2
  9
$TRACEWID
 40
0.05
  9
$TEXTSTYLE
  7
STANDARD
  9
$CLAYER
  8
0
  9
$CELTYPE
  6
BYLAYER
  9
$CECOLOR
 62
   256
  9
$DIMSCALE
 40
1.0
  9
$DIMASZ
 40
0.18
  9
$DIMEXO
 40
0.0625
  9
$DIMDLI
 40
0.38
  9
$DIMRND
 40
0.0
  9
$DIMDLE
 40
0.0
  9
$DIMEXE
 40
0.18
  9
$DIMTP
 40
0.0
  9
$DIMTM
 40
0.0
  9
$DIMTXT
 40
0.18
  9
$DIMCEN
 40
0.09
  9
$DIMTSZ
 40
0.0
  9
$DIMTOL
 70
     0
  9
$DIMLIM
 70
     0
  9
$DIMTIH
 70
     1
  9
$DIMTOH
 70
     1
  9
$DIMSE1
 70
     0
  9
$DIMSE2
 70
     0
  9
$DIMTAD
 70
     0
  9
$DIMZIN
 70
     0
  9
$DIMBLK
  1

  9
$DIMASO
 70
     1
  9
$DIMSHO
 70
     1
  9
$DIMPOST
  1

  9
$DIMAPOST
  1

  9
$DIMALT
 70
     0
  9
$DIMALTD
 70
     2
  9
$DIMALTF
 40
25.3999999999999986
  9
$DIMLFAC
 40
1.0
  9
$DIMTOFL
 70
     0
  9
$DIMTVP
 40
0.0
  9
$DIMTIX
 70
     0
  9
$DIMSOXD
 70
     0
  9
$DIMSAH
 70
     0
  9
$DIMBLK1
  1

  9
$DIMBLK2
  1

  9
$DIMSTYLE
  2
STANDARD
  9
$DIMCLRD
 70
     0
  9
$DIMCLRE
 70
     0
  9
$DIMCLRT
 70
     0
  9
$DIMTFAC
 40
1.0
  9
$DIMGAP
 40
0.09
  9
$LUNITS
 70
     2
  9
$LUPREC
 70
     4
  9
$SKETCHINC
 40
0.1
  9
$FILLETRAD
 40
0.0
  9
$AUNITS
 70
     0
  9
$AUPREC
 70
     0
  9
$MENU
  1
.
  9
$ELEVATION
 40
0.0
  9
$PELEVATION
 40
0.0
  9
$THICKNESS
 40
0.0
  9
$LIMCHECK
 70
     0
  9
$BLIPMODE
 70
     0
  9
$CHAMFERA
 40
0.0
  9
$CHAMFERB
 40
0.0
  9
$SKPOLY
 70
     0
  9
$TDCREATE
 40
2459053.6805902780033648
  9
$TDUPDATE
 40
2459231.4724189820699394
  9
$TDINDWG
 40
0.0396527778
  9
$TDUSRTIMER
 40
0.0396527778
  9
$USRTIMER
 70
     1
  9
$ANGBASE
 50
0.0
  9
$ANGDIR
 70
     0
  9
$PDMODE
 70
     0
  9
$PDSIZE
 40
0.0
  9
$PLINEWID
 40
0.0
  9
$COORDS
 70
     1
  9
$SPLFRAME
 70
     0
  9
$SPLINETYPE
 70
     6
  9
$SPLINESEGS
 70
     8
  9
$ATTDIA
 70
     1
  9
$ATTREQ
 70
     1
  9
$HANDLING
 70
     1
  9
$HANDSEED
  5
B8E
  9
$SURFTAB1
 70
     6
  9
$SURFTAB2
 70
     6
  9
$SURFTYPE
 70
     6
  9
$SURFU
 70
     6
  9
$SURFV
 70
     6
  9
$UCSNAME
  2

  9
$UCSORG
 10
0.0
 20
0.0
 30
0.0
  9
$UCSXDIR
 10
1.0
 20
0.0
 30
0.0
  9
$UCSYDIR
 10
0.0
 20
1.0
 30
0.0
  9
$PUCSNAME
  2

  9
$PUCSORG
 10
0.0
 20
0.0
 30
0.0
  9
$PUCSXDIR
 10
1.0
 20
0.0
 30
0.0
  9
$PUCSYDIR
 10
0.0
 20
1.0
 30
0.0
  9
$USERI1
 70
     0
  9
$USERI2
 70
     0
  9
$USERI3
 70
     0
  9
$USERI4
 70
     0
  9
$USERI5
 70
     0
  9
$USERR1
 40
0.0
  9
$USERR2
 40
0.0
  9
$USERR3
 40
0.0
  9
$USERR4
 40
0.0
  9
$USERR5
 40
0.0
  9
$WORLDVIEW
 70
     1
  9
$SHADEDGE
 70
     3
  9
$SHADEDIF
 70
    70
  9
$TILEMODE
 70
     1
  9
$MAXACTVP
 70
    64
  9
$PLIMCHECK
 70
     0
  9
$PEXTMIN
 10
-1.449360647290042
 20
-2.5245922893593011
 30
0.0
  9
$PEXTMAX
 10
38.4482771455761565
 20
14.7116281826406894
 30
0.0
  9
$PLIMMIN
 10
0.0
 20
0.0
  9
$PLIMMAX
 10
12.0
 20
9.0
  9
$UNITMODE
 70
     0
  9
$VISRETAIN
 70
     1
  9
$PLINEGEN
 70
     0
  9
$PSLTSCALE
 70
     1
  0
ENDSEC
  0
SECTION
  2
TABLES
  0
TABLE
  2
VPORT
 70
     1
  0
VPORT
  2
*ACTIVE
 70
     0
 10
0.0
 20
0.0
 11
1.0
 21
1.0
 12
80.6198889416256748
 22
-21.03413411362299
 13
0.0
 23
0.0
 14
0.5
 24
0.5
 15
0.5
 25
0.5
 16
0.0
 26
0.0
 36
1.0
 17
0.0
 27
0.0
 37
0.0
 40
45.2209429883139435
 41
1.63165905631659
 42
50.0
 43
0.0
 44
0.0
 50
0.0
 51
0.0
 71
     0
 72
  1000
 73
     1
 74
     3
 75
     0
 76
     0
 77
     0
 78
     0
  0
ENDTAB
  0
TABLE
  2
LTYPE
 70
     1
  0
LTYPE
  2
CONTINUOUS
 70
     0
  3
Solid line
 72
    65
 73
     0
 40
0.0
  0
ENDTAB
  0
TABLE
  2
LAYER
 70
     7
  0
LAYER
  2
0
 70
     0
 62
     7
  6
CONTINUOUS
  0
LAYER
  2
VISIBLE_EDGES_ISO_
 70
     0
 62
     7
  6
CONTINUOUS
  0
LAYER
  2
VISIBLE_TANGENT_EDGES_ISO_
 70
     0
 62
     7
  6
CONTINUOUS
  0
LAYER
  2
DEFPOINTS
 70
     0
 62
     7
  6
CONTINUOUS
  0
LAYER
  2
P-0000
 70
     0
 62
     7
  6
CONTINUOUS
  0
LAYER
  2
V__070
 70
     0
 62
     1
  6
CONTINUOUS
  0
LAYER
  2
TEMPLATE
 70
     0
 62
     6
  6
CONTINUOUS
  0
ENDTAB
  0
TABLE
  2
STYLE
 70
     3
  0
STYLE
  2
STANDARD
 70
     0
 40
0.0
 41
1.0
 50
0.0
 71
     0
 42
0.2
  3
txt
  4

  0
STYLE
  2
ANNOTATIVE
 70
     0
 40
0.0
 41
1.0
 50
0.0
 71
     0
 42
0.2
  3
txt
  4

  0
STYLE
  2
FRANKE
 70
     0
 40
0.0
 41
1.0
 50
0.0
 71
     0
 42
40.0
  3
txt
  4

  0
ENDTAB
  0
TABLE
  2
VIEW
 70
     5
  0
ENDTAB
  0
TABLE
  2
UCS
 70
     0
  0
ENDTAB
  0
TABLE
  2
APPID
 70
     8
  0
APPID
  2
ACAD
 70
     0
  0
APPID
  2
ACADANNOTATIVE
 70
     0
  0
APPID
  2
ACAD_NAV_VCDISPLAY
 70
     0
  0
APPID
  2
ACAD_DSTYLE_DIMRADIAL_EXTENSION
 70
     0
  0
APPID
  2
ACAD_EXEMPT_FROM_CAD_STANDARDS
 70
     0
  0
APPID
  2
TOP
 70
     0
  0
APPID
  2
ACAD_PSEXT
 70
     0
  0
APPID
  2
ACAD_MLEADERVER
 70
     0
  0
ENDTAB
  0
TABLE
  2
DIMSTYLE
 70
     2
  0
DIMSTYLE
  2
STANDARD
 70
     0
  3

  4

  5

  6

  7

 40
1.0
 41
0.18
 42
0.0625
 43
0.38
 44
0.18
 45
0.0
 46
0.0
 47
0.0
 48
0.0
140
0.18
141
0.09
142
0.0
143
25.3999999999999986
144
1.0
145
0.0
146
1.0
147
0.09
 71
     0
 72
     0
 73
     1
 74
     1
 75
     0
 76
     0
 77
     0
 78
     0
170
     0
171
     2
172
     0
173
     0
174
     0
175
     0
176
     0
177
     0
178
     0
  0
DIMSTYLE
  2
ANNOTATIVE
 70
     0
  3

  4

  5

  6

  7

 40
1.0
 41
0.18
 42
0.0625
 43
0.38
 44
0.18
 45
0.0
 46
0.0
 47
0.0
 48
0.0
140
0.18
141
0.09
142
0.0
143
25.3999999999999986
144
1.0
145
0.0
146
1.0
147
0.09
 71
     0
 72
     0
 73
     1
 74
     1
 75
     0
 76
     0
 77
     0
 78
     0
170
     0
171
     2
172
     0
173
     0
174
     0
175
     0
176
     0
177
     0
178
     0
  0
ENDTAB
  0
ENDSEC
  0
SECTION
  2
BLOCKS
  0
BLOCK
  8
0
  2
$MODEL_SPACE
 70
     0
 10
0.0
 20
0.0
 30
0.0
  3
$MODEL_SPACE
  1

  0
ENDBLK
  5
72
  8
0
  0
BLOCK
 67
     1
  8
0
  2
$PAPER_SPACE
 70
     0
 10
0.0
 20
0.0
 30
0.0
  3
$PAPER_SPACE
  1

  0
ENDBLK
  5
6E
 67
     1
  8
0
  0
BLOCK
  8
0
  2
*D1
 70
     1
 10
0.0
 20
0.0
 30
0.0
  3
*D1
  1

  0
LINE
  5
5CD
  8
0
 62
     0
 10
-1.4349217717494289
 20
-30.5875190492975904
 30
0.0
 11
-1.4349217717494289
 21
-34.6635945587174206
 31
0.0
  0
LINE
  5
5CE
  8
0
 62
     0
 10
20.6910624782506112
 20
-30.5875190492975904
 30
0.0
 11
20.6910624782506112
 21
-34.6635945587174206
 31
0.0
  0
LINE
  5
5CF
  8
0
 62
     0
 10
-1.2549217717494301
 20
-34.4835945587174209
 30
0.0
 11
5.8297370199172578
 21
-34.4835945587174209
 31
0.0
  0
LINE
  5
5D0
  8
0
 62
     0
 10
20.5110624782506186
 20
-34.4835945587174209
 30
0.0
 11
13.4264036865839191
 21
-34.4835945587174209
 31
0.0
  0
SOLID
  5
5D1
  8
0
 62
     0
 10
-1.2549217717494301
 20
-34.4535945587174197
 30
0.0
 11
-1.2549217717494301
 21
-34.513594558717422
 31
0.0
 12
-1.4349217717494289
 22
-34.4835945587174209
 32
0.0
 13
-1.4349217717494289
 23
-34.4835945587174209
 33
0.0
  0
SOLID
  5
5D2
  8
0
 62
     0
 10
20.5110624782506186
 20
-34.4535945587174197
 30
0.0
 11
20.5110624782506186
 21
-34.513594558717422
 31
0.0
 12
20.6910624782506112
 22
-34.4835945587174209
 32
0.0
 13
20.6910624782506112
 23
-34.4835945587174209
 33
0.0
  0
INSERT
  5
5D3
  8
0
  2
*U14
 10
0.0
 20
0.0
 30
0.0
  0
POINT
  5
5D4
  8
DEFPOINTS
 62
     0
 10
-1.4349217717494289
 20
-30.5250190492975904
 30
0.0
  0
POINT
  5
5D5
  8
DEFPOINTS
 62
     0
 10
20.6910624782506112
 20
-30.5250190492975904
 30
0.0
  0
POINT
  5
5D6
  8
DEFPOINTS
 62
     0
 10
20.6910624782506112
 20
-34.4835945587174209
 30
0.0
  0
ENDBLK
  5
5CC
  8
0
  0
BLOCK
  8
0
  2
*D2
 70
     1
 10
0.0
 20
0.0
 30
0.0
  3
*D2
  1

  0
LINE
  5
698
  8
0
 62
     0
 10
-2.025472952851771
 20
-28.1829645956607386
 30
0.0
 11
-2.025472952851771
 21
-37.7826632388969372
 31
0.0
  0
LINE
  5
699
  8
0
 62
     0
 10
38.8170467302191824
 20
-30.5875190492975904
 30
0.0
 11
38.8170467302191824
 21
-37.7826632388969372
 31
0.0
  0
LINE
  5
69A
  8
0
 62
     0
 10
-1.845472952851771
 20
-37.6026632388969375
 30
0.0
 11
14.3474535553503699
 21
-37.6026632388969375
 31
0.0
  0
LINE
  5
69B
  8
0
 62
     0
 10
38.6370467302191685
 20
-37.6026632388969375
 30
0.0
 11
22.444120222017041
 21
-37.6026632388969375
 31
0.0
  0
SOLID
  5
69C
  8
0
 62
     0
 10
-1.845472952851771
 20
-37.5726632388969435
 30
0.0
 11
-1.845472952851771
 21
-37.6326632388969387
 31
0.0
 12
-2.025472952851771
 22
-37.6026632388969375
 32
0.0
 13
-2.025472952851771
 23
-37.6026632388969375
 33
0.0
  0
SOLID
  5
69D
  8
0
 62
     0
 10
38.6370467302191685
 20
-37.5726632388969435
 30
0.0
 11
38.6370467302191685
 21
-37.6326632388969387
 31
0.0
 12
38.8170467302191824
 22
-37.6026632388969375
 32
0.0
 13
38.8170467302191824
 23
-37.6026632388969375
 33
0.0
  0
INSERT
  5
69E
  8
0
  2
*U17
 10
0.0
 20
0.0
 30
0.0
  0
POINT
  5
69F
  8
DEFPOINTS
 62
     0
 10
-2.025472952851771
 20
-28.1204645956607386
 30
0.0
  0
POINT
  5
6A0
  8
DEFPOINTS
 62
     0
 10
38.8170467302191824
 20
-30.5250190492975904
 30
0.0
  0
POINT
  5
6A1
  8
DEFPOINTS
 62
     0
 10
38.8170467302191824
 20
-37.6026632388969375
 30
0.0
  0
ENDBLK
  5
5D9
  8
0
  0
BLOCK
  8
0
  2
*D3
 70
     1
 10
0.0
 20
0.0
 30
0.0
  3
*D3
  1

  0
LINE
  5
5E7
  8
0
 62
     0
 10
-3.7820391301759821
 20
-12.5323335704494507
 30
0.0
 11
-3.602039130175914
 21
-12.5323335704494507
 31
0.0
  0
LINE
  5
5E8
  8
0
 62
     0
 10
-3.602039130175914
 20
-12.5323335704494507
 30
0.0
 11
-1.8234867074241601
 21
-14.0779026541897707
 31
0.0
  0
INSERT
  5
5E9
  8
0
  2
*U15
 10
0.0
 20
0.0
 30
0.0
  0
SOLID
  5
5EA
  8
0
 62
     0
 10
-1.8038085841786331
 20
-14.0552581964675394
 30
0.0
 11
-1.8431648306696891
 21
-14.1005471119120003
 31
0.0
 12
-1.687619961090788
 22
-14.1959713936629406
 32
0.0
 13
-1.687619961090788
 23
-14.1959713936629406
 33
0.0
  0
LINE
  5
5EB
  8
0
 62
     0
 10
-0.7375201969462318
 20
-15.0998221989038992
 30
0.0
 11
-0.5575201969462303
 21
-15.0998221989038992
 31
0.0
  0
LINE
  5
5EC
  8
0
 62
     0
 10
-0.6475201969462328
 20
-15.1898221989039008
 30
0.0
 11
-0.6475201969462328
 21
-15.0098221989038993
 31
0.0
  0
POINT
  5
5ED
  8
DEFPOINTS
 62
     0
 10
-1.687619961090788
 20
-14.1959713936629406
 30
0.0
  0
POINT
  5
5EE
  8
DEFPOINTS
 62
     0
 10
-0.6475201969462319
 20
-15.0998221989038992
 30
0.0
  0
ENDBLK
  5
5E6
  8
0
  0
BLOCK
  8
0
  2
*D4
 70
     1
 10
0.0
 20
0.0
 30
0.0
  3
*D4
  1

  0
LINE
  5
671
  8
0
 62
     0
 10
21.6910624782506183
 20
-30.5875190492975904
 30
0.0
 11
21.6910624782506183
 21
-34.6635945587174206
 31
0.0
  0
LINE
  5
672
  8
0
 62
     0
 10
38.2264955491167484
 20
-30.5875190492975904
 30
0.0
 11
38.2264955491167484
 21
-34.6635945587174206
 31
0.0
  0
LINE
  5
673
  8
0
 62
     0
 10
21.8710624782506109
 20
-34.4835945587174209
 30
0.0
 11
26.1604456803503496
 21
-34.4835945587174209
 31
0.0
  0
LINE
  5
674
  8
0
 62
     0
 10
38.0464955491167487
 20
-34.4835945587174209
 30
0.0
 11
33.7571123470170065
 21
-34.4835945587174209
 31
0.0
  0
SOLID
  5
675
  8
0
 62
     0
 10
21.8710624782506109
 20
-34.4535945587174197
 30
0.0
 11
21.8710624782506109
 21
-34.513594558717422
 31
0.0
 12
21.6910624782506183
 22
-34.4835945587174209
 32
0.0
 13
21.6910624782506183
 23
-34.4835945587174209
 33
0.0
  0
SOLID
  5
676
  8
0
 62
     0
 10
38.0464955491167487
 20
-34.4535945587174197
 30
0.0
 11
38.0464955491167487
 21
-34.513594558717422
 31
0.0
 12
38.2264955491167484
 22
-34.4835945587174209
 32
0.0
 13
38.2264955491167484
 23
-34.4835945587174209
 33
0.0
  0
INSERT
  5
677
  8
0
  2
*U16
 10
0.0
 20
0.0
 30
0.0
  0
POINT
  5
678
  8
DEFPOINTS
 62
     0
 10
21.6910624782506183
 20
-30.5250190492975904
 30
0.0
  0
POINT
  5
679
  8
DEFPOINTS
 62
     0
 10
38.2264955491167484
 20
-30.5250190492975904
 30
0.0
  0
POINT
  5
67A
  8
DEFPOINTS
 62
     0
 10
38.2264955491167484
 20
-34.4835945587174209
 30
0.0
  0
ENDBLK
  5
670
  8
0
  0
BLOCK
  8
0
  2
*D5
 70
     1
 10
0.0
 20
0.0
 30
0.0
  3
*D5
  1

  0
LINE
  5
70C
  8
0
 62
     0
 10
37.7371706075920272
 20
-14.3124206241007403
 30
0.0
 11
44.4589024685200371
 21
-14.3124206241007297
 31
0.0
  0
LINE
  5
70D
  8
0
 62
     0
 10
37.7371706075920272
 20
-31.3124206241007705
 30
0.0
 11
44.4589024685200371
 21
-31.3124206241007705
 31
0.0
  0
LINE
  5
70E
  8
0
 62
     0
 10
44.2789024685200374
 20
-14.4924206241007294
 30
0.0
 11
44.2789024685200374
 21
-19.1807539574340815
 31
0.0
  0
LINE
  5
70F
  8
0
 62
     0
 10
44.2789024685200374
 20
-31.1324206241007708
 30
0.0
 11
44.2789024685200374
 21
-26.4440872907674205
 31
0.0
  0
SOLID
  5
710
  8
0
 62
     0
 10
44.2489024685200434
 20
-14.4924206241007294
 30
0.0
 11
44.3089024685200386
 21
-14.4924206241007294
 31
0.0
 12
44.2789024685200374
 22
-14.3124206241007297
 32
0.0
 13
44.2789024685200374
 23
-14.3124206241007297
 33
0.0
  0
SOLID
  5
711
  8
0
 62
     0
 10
44.2489024685200434
 20
-31.1324206241007708
 30
0.0
 11
44.3089024685200386
 21
-31.1324206241007708
 31
0.0
 12
44.2789024685200374
 22
-31.3124206241007705
 32
0.0
 13
44.2789024685200374
 23
-31.3124206241007705
 33
0.0
  0
INSERT
  5
712
  8
0
  2
*U18
 10
0.0
 20
0.0
 30
0.0
  0
POINT
  5
713
  8
DEFPOINTS
 62
     0
 10
37.6746706075920414
 20
-14.3124206241007403
 30
0.0
  0
POINT
  5
714
  8
DEFPOINTS
 62
     0
 10
37.6746706075920414
 20
-31.3124206241007705
 30
0.0
  0
POINT
  5
715
  8
DEFPOINTS
 62
     0
 10
44.2789024685200374
 20
-31.3124206241007705
 30
0.0
  0
ENDBLK
  5
6F4
  8
0
  0
BLOCK
  8
0
  2
*D6
 70
     1
 10
0.0
 20
0.0
 30
0.0
  3
*D6
  1

  0
LINE
  5
716
  8
0
 62
     0
 10
35.5737813368160829
 20
-13.7218694429984005
 30
0.0
 11
48.1025494047725175
 21
-13.7218694429983898
 31
0.0
  0
LINE
  5
717
  8
0
 62
     0
 10
35.5737813368160829
 20
-31.9029718052030908
 30
0.0
 11
48.1025494047725317
 21
-31.9029718052030908
 31
0.0
  0
LINE
  5
718
  8
0
 62
     0
 10
47.9225494047725178
 20
-13.9018694429983896
 30
0.0
 11
47.9225494047725178
 21
-19.2640872907673995
 31
0.0
  0
LINE
  5
719
  8
0
 62
     0
 10
47.9225494047725178
 20
-31.7229718052030805
 30
0.0
 11
47.9225494047725178
 21
-26.3607539574340812
 31
0.0
  0
SOLID
  5
71A
  8
0
 62
     0
 10
47.8925494047725167
 20
-13.9018694429983896
 30
0.0
 11
47.9525494047725189
 21
-13.9018694429983896
 31
0.0
 12
47.9225494047725178
 22
-13.7218694429983898
 32
0.0
 13
47.9225494047725178
 23
-13.7218694429983898
 33
0.0
  0
SOLID
  5
71B
  8
0
 62
     0
 10
47.8925494047725167
 20
-31.7229718052030805
 30
0.0
 11
47.9525494047725189
 21
-31.7229718052030805
 31
0.0
 12
47.9225494047725178
 22
-31.9029718052030908
 32
0.0
 13
47.9225494047725178
 23
-31.9029718052030908
 33
0.0
  0
INSERT
  5
71C
  8
0
  2
*U19
 10
0.0
 20
0.0
 30
0.0
  0
POINT
  5
71D
  8
DEFPOINTS
 62
     0
 10
35.5112813368160829
 20
-13.7218694429984005
 30
0.0
  0
POINT
  5
71E
  8
DEFPOINTS
 62
     0
 10
35.5112813368160829
 20
-31.9029718052030908
 30
0.0
  0
POINT
  5
71F
  8
DEFPOINTS
 62
     0
 10
47.9225494047725178
 20
-31.9029718052030908
 30
0.0
  0
ENDBLK
  5
701
  8
0
  0
BLOCK
  8
0
  2
*U7
 70
     1
 10
0.0
 20
0.0
 30
0.0
  3
*U7
  1

  0
TEXT
  5
744
  8
P-0000
 62
     7
 10
2864.8660724999699596
 20
1453.9049742811259875
 30
0.0
 40
3.999999999999996
  1
Pour obtenir de meilleurs résultats, Franke recommande de confier le montage de cette unité à
  7
FRANKE
  0
TEXT
  5
745
  8
P-0000
 62
     7
 10
2864.9128257467227741
 20
1447.142203718356086
 30
0.0
 40
3.999999999999996
  1
un installateur professionnel. Cet évier a été spécialement conçu pour un montage en dessous
  7
FRANKE
  0
TEXT
  5
746
  8
P-0000
 62
     7
 10
2864.9881504220479655
 20
1440.4547578309100118
 30
0.0
 40
3.999999999999996
  1
d'un comptoir à surface massive uniquement. Ne pas installer un évier endommagé. Inspecter
  7
FRANKE
  0
TEXT
  5
747
  8
P-0000
 62
     7
 10
2864.9829556168538147
 20
1433.7880911642439514
 30
0.0
 40
3.999999999999996
  1
soigneusement.
  7
FRANKE
  0
TEXT
  5
748
  8
P-0000
 62
     7
 10
2864.8660724999699596
 20
1420.3586539348059432
 30
0.0
 40
3.999999999999996
  1
NOTE : le gabarit fourni (ou le fichier dxf téléchargé à partir du site Web) sert uniquement de
  7
FRANKE
  0
TEXT
  5
749
  8
P-0000
 62
     7
 10
2864.9829556168538147
 20
1413.5958833720360417
 30
0.0
 40
3.999999999999996
  1
guide. Pour une découpure parfaite, TOUJOURS travailler avec l'évier et les accessoires que l'on
  7
FRANKE
  0
TEXT
  5
74A
  8
P-0000
 62
     7
 10
2864.9881504220479655
 20
1405.8435024196548966
 30
0.0
 40
3.999999999999996
  1
a en main. FRANKE N'ASSUME AUCUNE RESPONSABILITÉ EN CAS MAUVAISE DÉCOUPURE
  7
FRANKE
  0
TEXT
  5
74B
  8
P-0000
 62
     7
 10
2864.8660724999699596
 20
1398.0911214672730694
 30
0.0
 40
3.999999999999996
  1
DE COMPTOIR OU D'INSTALLATION INADÉQUATE
  7
FRANKE
  0
TEXT
  5
74C
  8
P-0000
 62
     7
 10
2864.8219166558142206
 20
1384.7318141079670113
 30
0.0
 40
3.999999999999996
  1
1. Réaliser la découpure à l'endroit voulu de la surface de montage à l'aide de ce gabarit (ou du
  7
FRANKE
  0
TEXT
  5
74D
  8
P-0000
 62
     7
 10
2865.2115270454241909
 20
1378.044368220520937
 30
0.0
 40
3.999999999999996
  1
fichier dxf téléchargé à partir de notre site Web). Ne pas oublier de comparer l'évier à installer
  7
FRANKE
  0
TEXT
  5
74E
  8
P-0000
 62
     7
 10
2864.9881504220479655
 20
1371.3569223330750901
 30
0.0
 40
3.999999999999996
  1
avec le gabarit utilisé pour assurer un montage parfait. La taille de la découpure doit être exacte
  7
FRANKE
  0
TEXT
  5
74F
  8
P-0000
 62
     7
 10
2864.9777608116592091
 20
1364.6746712508240762
 30
0.0
 40
3.999999999999996
  1
car cet évier se monte avec des accessoires adaptés avec précision à la découpure. Tenir
  7
FRANKE
  0
TEXT
  5
750
  8
P-0000
 62
     7
 10
2864.9777608116592091
 20
1357.9924201685730623
 30
0.0
 40
3.999999999999996
  1
compte également de l'espace nécessaire à l'installation des autres produits sur le dessus de
  7
FRANKE
  0
TEXT
  5
751
  8
P-0000
 62
     7
 10
2864.9777608116592091
 20
1351.3101690863220483
 30
0.0
 40
3.999999999999996
  1
comptoir, à proximité de l'évier, comme les robinets ou les distributeurs de savon.
  7
FRANKE
  0
TEXT
  5
752
  8
P-0000
 62
     7
 10
2864.9673712012690885
 20
1337.8807318568849496
 30
0.0
 40
3.999999999999996
  1
2. Il est de la responsabilité du fournisseur/de l'installateur du dessus de comptoir de décider de
  7
FRANKE
  0
TEXT
  5
753
  8
P-0000
 62
     7
 10
2864.907630941529078
 20
1331.1984807746330262
 30
0.0
 40
3.999999999999996
  1
la méthode d'ancrage idéale en tenant compte de l'application et du matériau utilisé. Déterminer
  7
FRANKE
  0
TEXT
  5
754
  8
P-0000
 62
     7
 10
2864.907630941529078
 20
1324.5110348871869519
 30
0.0
 40
3.999999999999996
  1
le meilleur emplacement des agrafes de fixation fournies; idéalement, les espacer uniformément
  7
FRANKE
  0
TEXT
  5
755
  8
P-0000
 62
     7
 10
2864.9881504220479655
 20
1317.828783804935938
 30
0.0
 40
3.999999999999996
  1
autour du rebord de l'évier sur tous les côtés. Percer les trous à l'avance et installer les
  7
FRANKE
  0
TEXT
  5
756
  8
P-0000
 62
     7
 10
2864.9881504220479655
 20
1311.0660132421660364
 30
0.0
 40
3.999999999999996
  1
ancrages. Les vis de fixation et/ou autres pièces de quincaillerie nécessaires à l'ancrage ne sont
  7
FRANKE
  0
TEXT
  5
757
  8
P-0000
 62
     7
 10
2864.9024361363340176
 20
1304.303242679394998
 30
0.0
 40
3.999999999999996
  1
pas comprises. Sans les serrer, rattacher les agrafes de fixation au dessus de comptoir en
  7
FRANKE
  0
TEXT
  5
758
  8
P-0000
 62
     7
 10
2864.9128257467227741
 20
1297.6209915971439841
 30
0.0
 40
3.999999999999996
  1
utilisant l'ancrage sélectionné.
  7
FRANKE
  0
TEXT
  5
759
  8
P-0000
 62
     7
 10
2865.0089296428282069
 20
1284.1915543677071128
 30
0.0
 40
3.999999999999996
  1
3. Mettre un cordon uniforme de silicone le long du bord de la cuvette et/ou le long de la face
  7
FRANKE
  0
TEXT
  5
75A
  8
P-0000
 62
     7
 10
2864.907630941529078
 20
1277.5041084802610385
 30
0.0
 40
3.999999999999996
  1
inférieure du dessus de comptoir.
  7
FRANKE
  0
TEXT
  5
75B
  8
P-0000
 62
     7
 10
2865.0582802921780967
 20
1264.1499959261489039
 30
0.0
 40
3.999999999999996
  1
4. Positionner et aligner l'évier de manière uniforme sur l'ouverture qui a été découpée.
  7
FRANKE
  0
TEXT
  5
75C
  8
P-0000
 62
     7
 10
2864.9465919804911209
 20
1257.3872253633780929
 30
0.0
 40
3.999999999999996
  1
Comprimer l'évier sur le joint de silicone et serrer partiellement les agrafes de fixation sur l'évier
  7
FRANKE
  0
TEXT
  5
75D
  8
P-0000
 62
     7
 10
2864.9024361363340176
 20
1250.7205586967108957
 30
0.0
 40
3.999999999999996
  1
pour qu'il reste en place.
  7
FRANKE
  0
TEXT
  5
75E
  8
P-0000
 62
     7
 10
2864.9933452272430259
 20
1237.3664461425989884
 30
0.0
 40
3.999999999999996
  1
5. Vérifier l'alignement une dernière fois pour s'assurer que l'ouverture de l'évier est alignée
  7
FRANKE
  0
TEXT
  5
75F
  8
P-0000
 62
     7
 10
2864.9128257467227741
 20
1230.6790002551520047
 30
0.0
 40
3.999999999999996
  1
uniformément avec la découpure dans le dessus de comptoir, comme illustré par l'image
  7
FRANKE
  0
TEXT
  5
760
  8
P-0000
 62
     7
 10
2864.9777608116592091
 20
1223.9915543677070673
 30
0.0
 40
3.999999999999996
  1
ci-dessous. Faire les ajustements nécessaires pour obtenir un alignement parfait.
  7
FRANKE
  0
TEXT
  5
761
  8
P-0000
 62
     7
 10
2864.9725660064650583
 20
1210.6322470084000997
 30
0.0
 40
3.999999999999996
  1
6. Lorsque l'alignement est satisfaisant, serrer à fond les agrafes de fixation sur le rebord de
  7
FRANKE
  0
TEXT
  5
762
  8
P-0000
 62
     7
 10
2864.907630941529078
 20
1203.9499959261490858
 30
0.0
 40
3.999999999999996
  1
l'évier et ôter l'excès de silicone.
  7
FRANKE
  0
TEXT
  5
763
  8
P-0000
 62
     7
 10
2864.9465919804911209
 20
1197.1872253633780474
 30
0.0
 40
3.999999999999996
  1
CONSEIL : une fois la silicone durcie, essuyer le bord intérieur avec un linge imbibé d'alcool
  7
FRANKE
  0
TEXT
  5
764
  8
P-0000
 62
     7
 10
2864.9881504220479655
 20
1190.424454800607009
 30
0.0
 40
3.999999999999996
  1
dénaturé. Cela permet de polir les endroits rugueux.
  7
FRANKE
  0
ENDBLK
  5
765
  8
0
  0
BLOCK
  8
0
  2
*U8
 70
     1
 10
0.0
 20
0.0
 30
0.0
  3
*U8
  1

  0
TEXT
  5
768
  8
P-0000
 62
     7
 10
2678.7470768498860707
 20
1451.8929718087240417
 30
0.0
 40
4.5
  1
For best results, Franke recommends this unit be mounted by a professional
  7
FRANKE
  0
TEXT
  5
769
  8
P-0000
 62
     7
 10
2678.7938300966388852
 20
1445.1195951853480892
 30
0.0
 40
4.5
  1
installer.  This sink is specifically designed to be undermounted in a solid
  7
FRANKE
  0
TEXT
  5
76A
  8
P-0000
 62
     7
 10
2678.8785703563789866
 20
1438.3462185619709999
 30
0.0
 40
4.5
  1
surface countertop only. Do not install a damaged sink. Inspect carefully.
  7
FRANKE
  0
TEXT
  5
76B
  8
P-0000
 62
     7
 10
2678.7470768498860707
 20
1424.7381016788540364
 30
0.0
 40
4.5
  1
NOTE: The template included (or dxf file downloaded from website) is only a
  7
FRANKE
  0
TEXT
  5
76C
  8
P-0000
 62
     7
 10
2678.8785703563789866
 20
1417.879984795737073
 30
0.0
 40
4.5
  1
guide. The actual sink and accessories should ALWAYS be present to ensure
  7
FRANKE
  0
TEXT
  5
76D
  8
P-0000
 62
     7
 10
2678.8844145122229747
 20
1411.0218679126201096
 30
0.0
 40
4.5
  1
a perfect cut.  FRANKE  IS NOT RESPONSIBLE FOR AN IMPROPERLY CUT
  7
FRANKE
  0
TEXT
  5
76E
  8
P-0000
 62
     7
 10
2678.8376612654701603
 20
1404.1637510295029188
 30
0.0
 40
4.5
  1
COUNTERTOP OR IMPROPER INSTALLATION
  7
FRANKE
  0
TEXT
  5
76F
  8
P-0000
 62
     7
 10
2678.697401525209898
 20
1390.5556341463859553
 30
0.0
 40
4.5
  1
1. Create the cut-out in the desired location of the mounting surface using
  7
FRANKE
  0
TEXT
  5
770
  8
P-0000
 62
     7
 10
2679.1474015252110803
 20
1383.7822575230100028
 30
0.0
 40
4.5
  1
this template (or the dxf file downloaded from our website). Make sure to
  7
FRANKE
  0
TEXT
  5
771
  8
P-0000
 62
     7
 10
2678.8727262005349985
 20
1377.0088808996329135
 30
0.0
 40
4.5
  1
compare the actual sink with the template being used to ensure a perfect fit.
  7
FRANKE
  0
TEXT
  5
772
  8
P-0000
 62
     7
 10
2679.0626612654700693
 20
1370.2355042762560515
 30
0.0
 40
4.5
  1
The size of the cut-out should be exact as this sink uses coordinating
  7
FRANKE
  0
TEXT
  5
773
  8
P-0000
 62
     7
 10
2678.8844145122229747
 20
1363.462127652880099
 30
0.0
 40
4.5
  1
accessories which fit precisely with the cut out.  Also be aware of the
  7
FRANKE
  0
TEXT
  5
774
  8
P-0000
 62
     7
 10
2678.8785703563789866
 20
1356.6887510295030097
 30
0.0
 40
4.5
  1
spacing requirements of any other products that will be mounted to the
  7
FRANKE
  0
TEXT
  5
775
  8
P-0000
 62
     7
 10
2678.8727262005349985
 20
1349.9153744061259204
 30
0.0
 40
4.5
  1
countertop next to the sink such as faucets or soap dispensers.
  7
FRANKE
  0
TEXT
  5
776
  8
P-0000
 62
     7
 10
2678.8610378888470223
 20
1336.3072575230089569
 30
0.0
 40
4.5
  1
2. It will be the responsibility of the countertop supplier/installer to decide the
  7
FRANKE
  0
TEXT
  5
777
  8
P-0000
 62
     7
 10
2678.7938300966388852
 20
1329.5572575230089569
 30
0.0
 40
4.5
  1
ideal anchoring method based on the application and
  7
FRANKE
  0
TEXT
  5
778
  8
P-0000
 62
     7
 10
2678.8727262005349985
 20
1322.7838808996330044
 30
0.0
 40
4.5
  1
countertop material being used. Determine best placement of the clip
  7
FRANKE
  0
TEXT
  5
779
  8
P-0000
 62
     7
 10
2678.7821417849499994
 20
1316.0338808996330044
 30
0.0
 40
4.5
  1
brackets provided, ideally they should be evenly spaced around the sink
  7
FRANKE
  0
TEXT
  5
77A
  8
P-0000
 62
     7
 10
2678.7938300966388852
 20
1309.2838808996330044
 30
0.0
 40
4.5
  1
ledge on all sides.  Pre-drill holes and install anchors.  Mounting screws
  7
FRANKE
  0
TEXT
  5
77B
  8
P-0000
 62
     7
 10
2678.8844145122229747
 20
1302.425764016516041
 30
0.0
 40
4.5
  1
and/or other hardware associated with anchoring not included.  Attach clip
  7
FRANKE
  0
TEXT
  5
77C
  8
P-0000
 62
     7
 10
2678.7821417849499994
 20
1295.675764016516041
 30
0.0
 40
4.5
  1
brackets loosely to the countertop using selected anchor.
  7
FRANKE
  0
TEXT
  5
77D
  8
P-0000
 62
     7
 10
2678.9077911355998367
 20
1282.0676471333990776
 30
0.0
 40
4.5
  1
3. Apply a bead of silicone evenly along the bowl rim and/or along the
  7
FRANKE
  0
TEXT
  5
77E
  8
P-0000
 62
     7
 10
2678.7996742524828733
 20
1275.2942705100219882
 30
0.0
 40
4.5
  1
underside of countertop.
  7
FRANKE
  0
TEXT
  5
77F
  8
P-0000
 62
     7
 10
2678.9633106161190881
 20
1261.7708938866460358
 30
0.0
 40
4.5
  1
4. Position and align sink evenly over the opening of the cut out. Press sink
  7
FRANKE
  0
TEXT
  5
780
  8
P-0000
 62
     7
 10
2678.7938300966388852
 20
1255.0208938866460358
 30
0.0
 40
4.5
  1
into silicone seal and partially tighten the clip brackets
  7
FRANKE
  0
TEXT
  5
781
  8
P-0000
 62
     7
 10
2678.8844145122229747
 20
1248.2708938866460358
 30
0.0
 40
4.5
  1
against the sink so it stays in place.
  7
FRANKE
  0
TEXT
  5
782
  8
P-0000
 62
     7
 10
2678.8902586680669629
 20
1234.6627770035290723
 30
0.0
 40
4.5
  1
5. Check alignment one final time to ensure the sink opening is evenly
  7
FRANKE
  0
TEXT
  5
783
  8
P-0000
 62
     7
 10
2678.8844145122229747
 20
1227.9127770035290723
 30
0.0
 40
4.5
  1
aligned with the countertop cut out as outlined in the image below.Make
  7
FRANKE
  0
TEXT
  5
784
  8
P-0000
 62
     7
 10
2678.8844145122229747
 20
1221.139400380151983
 30
0.0
 40
4.5
  1
adjustments as necessary to obtain perfect alignment.
  7
FRANKE
  0
TEXT
  5
785
  8
P-0000
 62
     7
 10
2678.8668820446910104
 20
1207.5312834970350195
 30
0.0
 40
4.5
  1
6. Once satisfactory alignment is achieved, fully tighten clip brackets against
  7
FRANKE
  0
TEXT
  5
786
  8
P-0000
 62
     7
 10
2679.1474015252110803
 20
1200.7579068736579302
 30
0.0
 40
4.5
  1
the rim of the sink and remove excess silicone.
  7
FRANKE
  0
TEXT
  5
787
  8
P-0000
 62
     7
 10
2678.7470768498860707
 20
1193.9845302502819777
 30
0.0
 40
4.5
  1
HINT: After silicone cures, wipe inside edge with denatured alcohol. This will
  7
FRANKE
  0
TEXT
  5
788
  8
P-0000
 62
     7
 10
2678.8785703563789866
 20
1187.2345302502819777
 30
0.0
 40
4.5
  1
smooth out any rough areas.
  7
FRANKE
  0
ENDBLK
  5
789
  8
0
  0
BLOCK
  8
0
  2
*U9
 70
     1
 10
0.0
 20
0.0
 30
0.0
  3
*U9
  1

  0
TEXT
  5
78C
  8
P-0000
 62
     7
 10
2601.2052802866360253
 20
1370.1271937568160411
 30
0.0
 40
4.0
  1
Questions? Appelez le service
  7
FRANKE
  0
TEXT
  5
78D
  8
P-0000
 62
     7
 10
2601.2468387281937794
 20
1364.1031937568159265
 30
0.0
 40
4.0
  1
à la clientèle États-Unis, au
  7
FRANKE
  0
TEXT
  5
78E
  8
P-0000
 62
     7
 10
2601.0806049619600344
 20
1358.0791937568160392
 30
0.0
 40
4.0
  1
1-800-626-5771
  7
FRANKE
  0
ENDBLK
  5
78F
  8
0
  0
BLOCK
  8
0
  2
*U10
 70
     1
 10
0.0
 20
0.0
 30
0.0
  3
*U10
  1

  0
TEXT
  5
792
  8
P-0000
 62
     7
 10
2601.2052802866360253
 20
1392.8048391010379419
 30
0.0
 40
4.0
  1
Questions?  Call Franke
  7
FRANKE
  0
TEXT
  5
793
  8
P-0000
 62
     7
 10
2601.2052802866360253
 20
1386.7808391010380547
 30
0.0
 40
4.0
  1
Customer Service USA
  7
FRANKE
  0
TEXT
  5
794
  8
P-0000
 62
     7
 10
2601.0806049619600344
 20
1380.7568391010379401
 30
0.0
 40
4.0
  1
1-800-626-5771
  7
FRANKE
  0
ENDBLK
  5
795
  8
0
  0
BLOCK
  8
0
  2
*U11
 70
     1
 10
0.0
 20
0.0
 30
0.0
  3
*U11
  1

  0
TEXT
  5
798
  8
P-0000
 10
3067.7236673529491782
 20
1457.25297337181496
 30
0.0
 40
3.705638474999998
  1
Para obtener mejores resultados, Franke recomienda que esta unidad sea montada por
  7
FRANKE
  0
TEXT
  5
799
  8
P-0000
 10
3067.7920791401797942
 20
1450.6738719760849108
 30
0.0
 40
3.705638474999998
  1
un instalador profesional.  Esta tarja está diseñada de manera específica para ser
  7
FRANKE
  0
TEXT
  5
79A
  8
P-0000
 10
3067.9830620461989383
 20
1444.094770580353952
 30
0.0
 40
3.705638474999998
  1
submontada únicamente en una superficie sólida bajo encimera. No instale tarjas
  7
FRANKE
  0
TEXT
  5
79B
  8
P-0000
 10
3067.9403046791808265
 20
1437.5156691846239028
 30
0.0
 40
3.705638474999998
  1
dañadas. Examínela cuidadosamente.
  7
FRANKE
  0
TEXT
  5
79C
  8
P-0000
 10
3067.7236673529491782
 20
1424.5997581396040914
 30
0.0
 40
3.705638474999998
  1
NOTA: La plantilla incluida (o archivo dxf que se descarga desde el sitio web) es sólo una
  7
FRANKE
  0
TEXT
  5
79D
  8
P-0000
 10
3068.0628757979688999
 20
1418.0206567438729053
 30
0.0
 40
3.705638474999998
  1
guía. La tarja y los accesorios deben estar SIEMPRE presentes para garantizar un corte
  7
FRANKE
  0
TEXT
  5
79E
  8
P-0000
 10
3067.7778266845070902
 20
1411.447256330412074
 30
0.0
 40
3.705638474999998
  1
perfecto. FRANKE NO SE HACE RESPONSABLE POR UNA ENCIMERA MAL CORTADA O
  7
FRANKE
  0
TEXT
  5
79F
  8
P-0000
 10
3067.7236673529491782
 20
1404.0500639790470814
 30
0.0
 40
3.705638474999998
  1
POR UNA INSTALACIÓN INCORRECTA
  7
FRANKE
  0
TEXT
  5
7A0
  8
P-0000
 10
3067.7179663706801875
 20
1391.1826112833159641
 30
0.0
 40
3.705638474999998
  1
1. Cree el recorte en la ubicación deseada de la superficie de montaje usando esta
  7
FRANKE
  0
TEXT
  5
7A1
  8
P-0000
 10
3067.7778266845070902
 20
1384.5550515382969934
 30
0.0
 40
3.705638474999998
  1
plantilla (o el archivo dxf descargado de nuestro sitio web). Asegúrese de comparar la
  7
FRANKE
  0
TEXT
  5
7A2
  8
P-0000
 10
3068.1198856206610799
 20
1377.9816511248350253
 30
0.0
 40
3.705638474999998
  1
tarja con la plantilla que se utiliza para garantizar un ajuste perfecto.  El tamaño del
  7
FRANKE
  0
TEXT
  5
7A3
  8
P-0000
 10
3067.9574076259877984
 20
1371.4282041493158886
 30
0.0
 40
3.705638474999998
  1
corte debe ser exacto, ya que esta tarja utiliza accesorios que encajan exactamente en
  7
FRANKE
  0
TEXT
  5
7A4
  8
P-0000
 10
3067.7778266845070902
 20
1364.8491027535840203
 30
0.0
 40
3.705638474999998
  1
la parte cortada.  También, tenga en mente los requisitos de espacio para otros
  7
FRANKE
  0
TEXT
  5
7A5
  8
P-0000
 10
3067.7778266845070902
 20
1358.2700013578551079
 30
0.0
 40
3.705638474999998
  1
productos que se montarán en la encimera al lado de la tarja, como grifos o
  7
FRANKE
  0
TEXT
  5
7A6
  8
P-0000
 10
3067.9403046791808265
 20
1351.6908999621239218
 30
0.0
 40
3.705638474999998
  1
dispensadores de jabón.
  7
FRANKE
  0
TEXT
  5
7A7
  8
P-0000
 10
3067.8889958387571824
 20
1338.6296138692389377
 30
0.0
 40
3.705638474999998
  1
2. Será responsabilidad del proveedor/instalador de la encimera elegir el método de
  7
FRANKE
  0
TEXT
  5
7A8
  8
P-0000
 10
3067.9517066437178983
 20
1332.0505124735079789
 30
0.0
 40
3.705638474999998
  1
anclaje ideal, tomando en cuenta el uso y el material de la encimera que se esté
  7
FRANKE
  0
TEXT
  5
7A9
  8
P-0000
 10
3067.7920791401797942
 20
1325.4714110777779297
 30
0.0
 40
3.705638474999998
  1
utilizando. Determine cuál es la mejor ubicación de las abrazaderas escuadra
  7
FRANKE
  0
TEXT
  5
7AA
  8
P-0000
 10
3067.7778266845070902
 20
1318.8923096820469709
 30
0.0
 40
3.705638474999998
  1
proporcionadas, lo ideal es que estén distribuidas uniformemente alrededor de las
  7
FRANKE
  0
TEXT
  5
7AB
  8
P-0000
 10
3067.9830620461989383
 20
1312.3189092685859123
 30
0.0
 40
3.705638474999998
  1
salientes de la tarja en todos los lados.  Taladre orificios e instale los anclajes.  Los
  7
FRANKE
  0
TEXT
  5
7AC
  8
P-0000
 10
3068.1198856206610799
 20
1305.7398078728549535
 30
0.0
 40
3.705638474999998
  1
tornillos de montaje u otros materiales relacionados con el anclaje no están incluidos.
  7
FRANKE
  0
TEXT
  5
7AD
  8
P-0000
 10
3067.7236673529491782
 20
1299.1863608973360442
 30
0.0
 40
3.705638474999998
  1
Fije las abrazaderas escuadra a la encimera, sin apretar,  haciendo uso del anclaje
  7
FRANKE
  0
TEXT
  5
7AE
  8
P-0000
 10
3067.9830620461989383
 20
1292.632913921815998
 30
0.0
 40
3.705638474999998
  1
seleccionado.
  7
FRANKE
  0
TEXT
  5
7AF
  8
P-0000
 10
3067.9203512412382224
 20
1279.5716278289319234
 30
0.0
 40
3.705638474999998
  1
3. Aplique un cordón de silicona uniformemente a lo largo del borde de la tina y/o a lo
  7
FRANKE
  0
TEXT
  5
7B0
  8
P-0000
 10
3067.7778266845070902
 20
1272.9982274154710922
 30
0.0
 40
3.705638474999998
  1
largo de la parte inferior de la encimera.
  7
FRANKE
  0
TEXT
  5
7B1
  8
P-0000
 10
3068.0771282536411491
 20
1260.1364757020089655
 30
0.0
 40
3.705638474999998
  1
4. Coloque y alinee la tarja uniformemente sobre la abertura del corte. Presione la tarja
  7
FRANKE
  0
TEXT
  5
7B2
  8
P-0000
 10
3067.9830620461989383
 20
1253.5830287264900562
 30
0.0
 40
3.705638474999998
  1
sobre el sellado de silicona y apriete parcialmente las abrazaderas escuadra contra la
  7
FRANKE
  0
TEXT
  5
7B3
  8
P-0000
 10
3068.1198856206610799
 20
1247.0295817509709195
 30
0.0
 40
3.705638474999998
  1
tarja para mantenerla en su lugar.
  7
FRANKE
  0
TEXT
  5
7B4
  8
P-0000
 10
3067.9260522235072131
 20
1234.1621290552400296
 30
0.0
 40
3.705638474999998
  1
5. Compruebe la alineación una última vez para asegurarse de que la abertura de la
  7
FRANKE
  0
TEXT
  5
7B5
  8
P-0000
 10
3068.1198856206610799
 20
1227.5830276595099804
 30
0.0
 40
3.705638474999998
  1
tarja esté uniformemente alineada con el corte de la encimera, tal como se indica en la
  7
FRANKE
  0
TEXT
  5
7B6
  8
P-0000
 10
3067.9830620461989383
 20
1221.0039262637790216
 30
0.0
 40
3.705638474999998
  1
siguiente imagen. Realice los ajustes necesarios para obtener una alineación perfecta.
  7
FRANKE
  0
TEXT
  5
7B7
  8
P-0000
 10
3067.9089492766988769
 20
1208.1364735680479043
 30
0.0
 40
3.705638474999998
  1
6. Una vez que se logre la alineación adecuada, apriete completamente las abrazaderas
  7
FRANKE
  0
TEXT
  5
7B8
  8
P-0000
 10
3067.9488561525840851
 20
1201.583026592528995
 30
0.0
 40
3.705638474999998
  1
escuadra contra el borde de la tarja y retire el exceso de silicona.  SUGERENCIA:
  7
FRANKE
  0
TEXT
  5
7B9
  8
P-0000
 10
3067.7236673529491782
 20
1195.0039251967980363
 30
0.0
 40
3.705638474999998
  1
Después de que la silicona se seque, limpie el borde interior con alcohol
  7
FRANKE
  0
TEXT
  5
7BA
  8
P-0000
 10
3067.9403046791808265
 20
1188.4248238010670775
 30
0.0
 40
3.705638474999998
  1
desnaturalizado. Esto suavizará cualquier área áspera.
  7
FRANKE
  0
ENDBLK
  5
7BB
  8
0
  0
BLOCK
  8
0
  2
*U12
 70
     1
 10
0.0
 20
0.0
 30
0.0
  3
*U12
  1

  0
TEXT
  5
7BE
  8
P-0000
 10
2600.2891419392440184
 20
1345.4485648597310501
 30
0.0
 40
3.391678999999999
  1
¿Preguntas?  Llame al Servicio al
  7
FRANKE
  0
TEXT
  5
7BF
  8
P-0000
 10
2600.2813149877051728
 20
1339.8763648597309839
 30
0.0
 40
3.391678999999999
  1
Cliente de Franke en EE.UU.
  7
FRANKE
  0
TEXT
  5
7C0
  8
P-0000
 10
2600.0804232315508671
 20
1334.3041648597300082
 30
0.0
 40
3.391678999999999
  1
1-800-626-5771
  7
FRANKE
  0
ENDBLK
  5
7C1
  8
0
  0
BLOCK
  8
0
  2
*U14
 70
     1
 10
0.0
 20
0.0
 30
0.0
  3
*U14
  1

  0
TEXT
  5
B75
  8
0
 62
     0
 10
5.9197370199172576
 20
-34.7335945587174209
 30
0.0
 40
0.5
  1
22.1260 [562.00MM]
  0
ENDBLK
  5
B77
  8
0
  0
BLOCK
  8
0
  2
*U15
 70
     1
 10
0.0
 20
0.0
 30
0.0
  3
*U15
  1

  0
TEXT
  5
B79
  8
0
 62
     0
 10
-6.1820391301759852
 20
-12.6223335704494506
 30
0.0
 40
0.18
  1
R1.3780 [R35.00]
  0
ENDBLK
  5
B7B
  8
0
  0
BLOCK
  8
0
  2
*U16
 70
     1
 10
0.0
 20
0.0
 30
0.0
  3
*U16
  1

  0
TEXT
  5
B7D
  8
0
 62
     0
 10
26.2504456803503494
 20
-34.7335945587174209
 30
0.0
 40
0.5
  1
16.5354 [420.00MM]
  0
ENDBLK
  5
B7F
  8
0
  0
BLOCK
  8
0
  2
*U17
 70
     1
 10
0.0
 20
0.0
 30
0.0
  3
*U17
  1

  0
TEXT
  5
B81
  8
0
 62
     0
 10
14.4374535553503591
 20
-37.8526632388969375
 30
0.0
 40
0.5
  1
40.8425 [1037.40MM]
  0
ENDBLK
  5
B83
  8
0
  0
BLOCK
  8
0
  2
*U18
 70
     1
 10
0.0
 20
0.0
 30
0.0
  3
*U18
  1

  0
TEXT
  5
B85
  8
0
 62
     0
 10
44.5289024685200232
 20
-26.3540872907674313
 30
0.0
 40
0.5
  1
17.0000 [431.80MM]
 50
90.0
  0
ENDBLK
  5
B87
  8
0
  0
BLOCK
  8
0
  2
*U19
 70
     1
 10
0.0
 20
0.0
 30
0.0
  3
*U19
  1

  0
TEXT
  5
B89
  8
0
 62
     0
 10
48.1725494047725107
 20
-26.2707539574340885
 30
0.0
 40
0.5
  1
18.1811 [461.80MM]
 50
90.0
  0
ENDBLK
  5
B8B
  8
0
  0
ENDSEC
  0
SECTION
  2
ENTITIES
  0
ARC
  5
730
  8
0
 10
98.7971990048276751
 20
-15.0998221989038992
 30
0.0
 40
0.90551181080315
 50
0.0
 51
90.0
  0
LINE
  5
733
  8
0
 10
60.7105848335677933
 20
-14.1943103881007495
 30
0.0
 11
98.7971990048276751
 21
-14.1943103881007495
 31
0.0
  0
ARC
  5
734
  8
0
 10
60.7105848335677933
 20
-15.0998221989038992
 30
0.0
 40
0.90551181080315
 50
90.0
 51
180.0
  0
LINE
  5
735
  8
0
 10
59.8050730227646383
 20
-15.0998221989038992
 30
0.0
 11
59.8050730227646383
 21
-30.5250190492975904
 31
0.0
  0
ARC
  5
736
  8
0
 10
60.7105848335677933
 20
-30.5250190492975904
 30
0.0
 40
0.90551181080315
 50
180.0
 51
270.0
  0
LINE
  5
737
  8
0
 10
60.7105848335677933
 20
-31.4305308601007383
 30
0.0
 11
98.7971990048276751
 21
-31.4305308601007383
 31
0.0
  0
ARC
  5
738
  8
0
 10
98.7971990048276751
 20
-30.5250190492975904
 30
0.0
 40
0.90551181080315
 50
270.0
 51
0.0
  0
LINE
  5
739
  8
0
 10
99.7027108156307804
 20
-15.0998221989038992
 30
0.0
 11
99.7027108156307804
 21
-30.5250190492975904
 31
0.0
  0
VIEWPORT
  5
A71
 67
     1
  8
0
 10
18.0017810359421198
 20
5.5958831251687746
 30
0.0
 40
61.2532127575841017
 41
37.5404484904223494
 68
     1
 69
     1
1001
ACAD
1000
MVIEW
1002
{
1070
    16
1010
0.0
1020
0.0
1030
0.0
1010
0.0
1020
0.0
1030
1.0
1040
0.0
1040
37.5404484904223494
1040
18.0017810359421198
1040
5.5958831251687746
1040
50.0
1040
0.0
1040
0.0
1070
     0
1070
  1000
1070
     1
1070
     1
1070
     0
1070
     0
1070
     0
1070
     0
1040
0.0
1040
0.0
1040
0.0
1040
0.5
1040
0.5
1040
0.5
1040
0.5
1070
     0
1002
{
1002
}
1002
}
  0
ARC
  5
AA6
 67
     1
  8
0
 10
-0.5438488364868875
 20
-1.619080478556149
 30
0.0
 40
0.90551181080315
 50
180.0
 51
270.0
  0
ARC
  5
AA7
 67
     1
  8
0
 10
-0.5438488364868875
 20
13.8061163718375397
 30
0.0
 40
0.90551181080315
 50
90.0
 51
180.0
  0
LINE
  5
AA8
 67
     1
  8
0
 10
-1.449360647290042
 20
13.8061163718375397
 30
0.0
 11
-1.449360647290042
 21
-1.619080478556149
 31
0.0
  0
LINE
  5
AA9
 67
     1
  8
0
 10
-0.5438488364868875
 20
-2.5245922893593011
 30
0.0
 11
37.5427653347730086
 21
-2.5245922893593011
 31
0.0
  0
LINE
  5
AAA
 67
     1
  8
0
 10
38.4482771455760997
 20
13.8061163718375397
 30
0.0
 11
38.4482771455760997
 21
-1.619080478556149
 31
0.0
  0
ARC
  5
AAB
 67
     1
  8
0
 10
37.5427653347730086
 20
13.8061163718375397
 30
0.0
 40
0.90551181080315
 50
0.0
 51
90.0
  0
ARC
  5
AAC
 67
     1
  8
0
 10
37.5427653347730086
 20
-1.619080478556149
 30
0.0
 40
0.90551181080315
 50
270.0
 51
0.0
  0
LINE
  5
AAD
 67
     1
  8
0
 10
-0.5438488364868875
 20
14.7116281826406894
 30
0.0
 11
37.5427653347730086
 21
14.7116281826406894
 31
0.0
  0
ENDSEC
  0
EOF
