  0
SECTION
  2
HEADER
  9
$ACADVER
  1
AC1027
  9
$ACADMAINTVER
 70
    55
  9
$DWGCODEPAGE
  3
ANSI_1252
  9
$LASTSAVEDBY
  1
TL995
  9
$CUSTOMPROPERTYTAG
  1
Manager
  9
$CUSTOMPROPERTY
  1

  9
$CUSTOMPROPERTYTAG
  1
Company
  9
$CUSTOMPROPERTY
  1

  9
$CUSTOMPROPERTYTAG
  1
Category
  9
$CUSTOMPROPERTY
  1

  9
$CUSTOMPROPERTYTAG
  1
Part Number
  9
$CUSTOMPROPERTY
  1
0056-195608
  9
$CUSTOMPROPERTYTAG
  1
Description
  9
$CUSTOMPROPERTY
  1
PCX 110 7 SI
  9
$CUSTOMPROPERTYTAG
  1
Project
  9
$CUSTOMPROPERTY
  1

  9
$CUSTOMPROPERTYTAG
  1
Designer
  9
$CUSTOMPROPERTY
  1

  9
$CUSTOMPROPERTYTAG
  1
Engineer
  9
$CUSTOMPROPERTY
  1

  9
$CUSTOMPROPERTYTAG
  1
Authority
  9
$CUSTOMPROPERTY
  1

  9
$CUSTOMPROPERTYTAG
  1
Cost Center
  9
$CUSTOMPROPERTY
  1

  9
$CUSTOMPROPERTYTAG
  1
Vendor
  9
$CUSTOMPROPERTY
  1

  9
$CUSTOMPROPERTYTAG
  1
User Status
  9
$CUSTOMPROPERTY
  1

  9
$CUSTOMPROPERTYTAG
  1
Design Status
  9
$CUSTOMPROPERTY
  1
WorkInProgress
  9
$CUSTOMPROPERTYTAG
  1
Checked by
  9
$CUSTOMPROPERTY
  1

  9
$CUSTOMPROPERTYTAG
  1
Engr Approved by
  9
$CUSTOMPROPERTY
  1

  9
$CUSTOMPROPERTYTAG
  1
Mfg Approved by
  9
$CUSTOMPROPERTY
  1

  9
$CUSTOMPROPERTYTAG
  1
Departement
  9
$CUSTOMPROPERTY
  1
Entwicklung
  9
$CUSTOMPROPERTYTAG
  1
Collection
  9
$CUSTOMPROPERTY
  1
Prestige
  9
$CUSTOMPROPERTYTAG
  1
Document_Number
  9
$CUSTOMPROPERTY
  1
0056-195608
  9
$CUSTOMPROPERTYTAG
  1
Unit
  9
$CUSTOMPROPERTY
  1
mm
  9
$CUSTOMPROPERTYTAG
  1
Scale
  9
$CUSTOMPROPERTY
  1
NTS
  9
$CUSTOMPROPERTYTAG
  1
Tolerance
  9
$CUSTOMPROPERTY
  1
ISO 2768 m
  9
$CUSTOMPROPERTYTAG
  1
Drawn_By
  9
$CUSTOMPROPERTY
  1
DK020
  9
$CUSTOMPROPERTYTAG
  1
Drawn_Date
  9
$CUSTOMPROPERTY
  1
06/21/2011
  9
$CUSTOMPROPERTYTAG
  1
Modified_By
  9
$CUSTOMPROPERTY
  1

  9
$CUSTOMPROPERTYTAG
  1
Revision_Index_1
  9
$CUSTOMPROPERTY
  1

  9
$CUSTOMPROPERTYTAG
  1
Revision_By_1
  9
$CUSTOMPROPERTY
  1

  9
$CUSTOMPROPERTYTAG
  1
Revision_Memo_1
  9
$CUSTOMPROPERTY
  1

  9
$CUSTOMPROPERTYTAG
  1
Revision_Titel_1
  9
$CUSTOMPROPERTY
  1

  9
$CUSTOMPROPERTYTAG
  1
Title
  9
$CUSTOMPROPERTY
  1
PCX 110 7 SI
  9
$CUSTOMPROPERTYTAG
  1
Auxiliary_Remark1
  9
$CUSTOMPROPERTY
  1
installing document (BUNA)
  9
$CUSTOMPROPERTYTAG
  1
Checked_By
  9
$CUSTOMPROPERTY
  1

  9
$CUSTOMPROPERTYTAG
  1
Auxiliary_Remark2
  9
$CUSTOMPROPERTY
  1
Stopfen
  9
$CUSTOMPROPERTYTAG
  1
Weight
  9
$CUSTOMPROPERTY
  1
78.336 kg
  9
$CUSTOMPROPERTYTAG
  1
CAXDisplayName
  9
$CUSTOMPROPERTY
  1
0056-195608 - PCX 110 7 SI - 
  9
$REQUIREDVERSIONS
160
                 0
  9
$INSBASE
 10
0.0
 20
0.0
 30
0.0
  9
$EXTMIN
 10
270.3298489468486
 20
1886.674945890938
 30
0.0
  9
$EXTMAX
 10
285.8298489468486
 20
1905.924945910449
 30
0.0
  9
$LIMMIN
 10
0.0
 20
0.0
  9
$LIMMAX
 10
2100.0
 20
2970.0
  9
$ORTHOMODE
 70
     0
  9
$REGENMODE
 70
     1
  9
$FILLMODE
 70
     1
  9
$QTEXTMODE
 70
     0
  9
$MIRRTEXT
 70
     0
  9
$LTSCALE
 40
10.0
  9
$ATTMODE
 70
     1
  9
$TEXTSIZE
 40
1.196541823576461
  9
$TRACEWID
 40
0.05
  9
$TEXTSTYLE
  7
Standard
  9
$CLAYER
  8
0
  9
$CELTYPE
  6
ByLayer
  9
$CECOLOR
 62
   256
  9
$CELTSCALE
 40
1.0
  9
$DISPSILH
 70
     0
  9
$DIMSCALE
 40
10.0
  9
$DIMASZ
 40
3.5
  9
$DIMEXO
 40
0.0
  9
$DIMDLI
 40
12.0
  9
$DIMRND
 40
0.00000001
  9
$DIMDLE
 40
10.0
  9
$DIMEXE
 40
3.174999999999998
  9
$DIMTP
 40
0.0
  9
$DIMTM
 40
0.0
  9
$DIMTXT
 40
5.0
  9
$DIMCEN
 40
0.09
  9
$DIMTSZ
 40
0.0
  9
$DIMTOL
 70
     0
  9
$DIMLIM
 70
     0
  9
$DIMTIH
 70
     0
  9
$DIMTOH
 70
     0
  9
$DIMSE1
 70
     0
  9
$DIMSE2
 70
     0
  9
$DIMTAD
 70
     1
  9
$DIMZIN
 70
     2
  9
$DIMBLK
  1

  9
$DIMASO
 70
     1
  9
$DIMSHO
 70
     1
  9
$DIMPOST
  1
 in
  9
$DIMAPOST
  1

  9
$DIMALT
 70
     0
  9
$DIMALTD
 70
     3
  9
$DIMALTF
 40
1.0
  9
$DIMLFAC
 40
0.0393700787401575
  9
$DIMTOFL
 70
     1
  9
$DIMTVP
 40
0.0
  9
$DIMTIX
 70
     0
  9
$DIMSOXD
 70
     0
  9
$DIMSAH
 70
     0
  9
$DIMBLK1
  1

  9
$DIMBLK2
  1

  9
$DIMSTYLE
  2
KS-Marketing
  9
$DIMCLRD
 70
     7
  9
$DIMCLRE
 70
     7
  9
$DIMCLRT
 70
     7
  9
$DIMTFAC
 40
0.7
  9
$DIMGAP
 40
0.8
  9
$DIMJUST
 70
     0
  9
$DIMSD1
 70
     0
  9
$DIMSD2
 70
     0
  9
$DIMTOLJ
 70
     1
  9
$DIMTZIN
 70
     8
  9
$DIMALTZ
 70
     0
  9
$DIMALTTZ
 70
     8
  9
$DIMUPT
 70
     0
  9
$DIMDEC
 70
     1
  9
$DIMTDEC
 70
     4
  9
$DIMALTU
 70
     2
  9
$DIMALTTD
 70
     3
  9
$DIMTXSTY
  7
Text__5.0mm
  9
$DIMAUNIT
 70
     0
  9
$DIMADEC
 70
     0
  9
$DIMALTRND
 40
0.0
  9
$DIMAZIN
 70
     2
  9
$DIMDSEP
 70
    44
  9
$DIMATFIT
 70
     3
  9
$DIMFRAC
 70
     2
  9
$DIMLDRBLK
  1

  9
$DIMLUNIT
 70
     5
  9
$DIMLWD
 70
    25
  9
$DIMLWE
 70
    25
  9
$DIMTMOVE
 70
     0
  9
$DIMFXL
 40
1.0
  9
$DIMFXLON
 70
     0
  9
$DIMJOGANG
 40
0.7853981633974483
  9
$DIMTFILL
 70
     0
  9
$DIMTFILLCLR
 70
     0
  9
$DIMARCSYM
 70
     0
  9
$DIMLTYPE
  6

  9
$DIMLTEX1
  6

  9
$DIMLTEX2
  6

  9
$DIMTXTDIRECTION
 70
     0
  9
$LUNITS
 70
     2
  9
$LUPREC
 70
     4
  9
$SKETCHINC
 40
0.1
  9
$FILLETRAD
 40
0.0
  9
$AUNITS
 70
     0
  9
$AUPREC
 70
     0
  9
$MENU
  1
.
  9
$ELEVATION
 40
0.0
  9
$PELEVATION
 40
0.0
  9
$THICKNESS
 40
0.0
  9
$LIMCHECK
 70
     0
  9
$CHAMFERA
 40
0.0
  9
$CHAMFERB
 40
0.0
  9
$CHAMFERC
 40
0.0
  9
$CHAMFERD
 40
0.0
  9
$SKPOLY
 70
     0
  9
$TDCREATE
 40
2457520.622331331
  9
$TDUCREATE
 40
2457520.830664665
  9
$TDUPDATE
 40
2457521.502165695
  9
$TDUUPDATE
 40
2457521.710499028
  9
$TDINDWG
 40
0.0204488542
  9
$TDUSRTIMER
 40
0.0204474421
  9
$USRTIMER
 70
     1
  9
$ANGBASE
 50
0.0
  9
$ANGDIR
 70
     0
  9
$PDMODE
 70
     0
  9
$PDSIZE
 40
0.0
  9
$PLINEWID
 40
0.0
  9
$SPLFRAME
 70
     0
  9
$SPLINETYPE
 70
     6
  9
$SPLINESEGS
 70
     8
  9
$HANDSEED
  5
E62
  9
$SURFTAB1
 70
     6
  9
$SURFTAB2
 70
     6
  9
$SURFTYPE
 70
     6
  9
$SURFU
 70
     6
  9
$SURFV
 70
     6
  9
$UCSBASE
  2

  9
$UCSNAME
  2

  9
$UCSORG
 10
0.0
 20
0.0
 30
0.0
  9
$UCSXDIR
 10
1.0
 20
0.0
 30
0.0
  9
$UCSYDIR
 10
0.0
 20
1.0
 30
0.0
  9
$UCSORTHOREF
  2

  9
$UCSORTHOVIEW
 70
     0
  9
$UCSORGTOP
 10
0.0
 20
0.0
 30
0.0
  9
$UCSORGBOTTOM
 10
0.0
 20
0.0
 30
0.0
  9
$UCSORGLEFT
 10
0.0
 20
0.0
 30
0.0
  9
$UCSORGRIGHT
 10
0.0
 20
0.0
 30
0.0
  9
$UCSORGFRONT
 10
0.0
 20
0.0
 30
0.0
  9
$UCSORGBACK
 10
0.0
 20
0.0
 30
0.0
  9
$PUCSBASE
  2

  9
$PUCSNAME
  2

  9
$PUCSORG
 10
0.0
 20
0.0
 30
0.0
  9
$PUCSXDIR
 10
1.0
 20
0.0
 30
0.0
  9
$PUCSYDIR
 10
0.0
 20
1.0
 30
0.0
  9
$PUCSORTHOREF
  2

  9
$PUCSORTHOVIEW
 70
     0
  9
$PUCSORGTOP
 10
0.0
 20
0.0
 30
0.0
  9
$PUCSORGBOTTOM
 10
0.0
 20
0.0
 30
0.0
  9
$PUCSORGLEFT
 10
0.0
 20
0.0
 30
0.0
  9
$PUCSORGRIGHT
 10
0.0
 20
0.0
 30
0.0
  9
$PUCSORGFRONT
 10
0.0
 20
0.0
 30
0.0
  9
$PUCSORGBACK
 10
0.0
 20
0.0
 30
0.0
  9
$USERI1
 70
     0
  9
$USERI2
 70
     0
  9
$USERI3
 70
     0
  9
$USERI4
 70
     0
  9
$USERI5
 70
     0
  9
$USERR1
 40
0.0
  9
$USERR2
 40
0.0
  9
$USERR3
 40
0.0
  9
$USERR4
 40
0.0
  9
$USERR5
 40
0.0
  9
$WORLDVIEW
 70
     1
  9
$SHADEDGE
 70
     3
  9
$SHADEDIF
 70
    70
  9
$TILEMODE
 70
     1
  9
$MAXACTVP
 70
    64
  9
$PINSBASE
 10
0.0
 20
0.0
 30
0.0
  9
$PLIMCHECK
 70
     0
  9
$PEXTMIN
 10
0.0
 20
0.0
 30
0.0
  9
$PEXTMAX
 10
2100.0
 20
2970.0
 30
0.0
  9
$PLIMMIN
 10
0.0
 20
0.0
  9
$PLIMMAX
 10
2100.0
 20
2970.0
  9
$UNITMODE
 70
     0
  9
$VISRETAIN
 70
     1
  9
$PLINEGEN
 70
     0
  9
$PSLTSCALE
 70
     1
  9
$TREEDEPTH
 70
  3020
  9
$CMLSTYLE
  2
Standard
  9
$CMLJUST
 70
     0
  9
$CMLSCALE
 40
1.0
  9
$PROXYGRAPHICS
 70
     1
  9
$MEASUREMENT
 70
     1
  9
$CELWEIGHT
370
    -1
  9
$ENDCAPS
280
     0
  9
$JOINSTYLE
280
     0
  9
$LWDISPLAY
290
     0
  9
$INSUNITS
 70
     4
  9
$HYPERLINKBASE
  1

  9
$STYLESHEET
  1

  9
$XEDIT
290
     1
  9
$CEPSNTYPE
380
     0
  9
$PSTYLEMODE
290
     1
  9
$FINGERPRINTGUID
  2
{8AE0F0E1-E5FA-4D73-9D00-EE7A8A664A2E}
  9
$VERSIONGUID
  2
{D30489FD-3F21-41B5-A284-C4D46677F4D7}
  9
$EXTNAMES
290
     1
  9
$PSVPSCALE
 40
0.0
  9
$OLESTARTUP
290
     0
  9
$SORTENTS
280
   127
  9
$INDEXCTL
280
     0
  9
$HIDETEXT
280
     1
  9
$XCLIPFRAME
280
     2
  9
$HALOGAP
280
     0
  9
$OBSCOLOR
 70
   257
  9
$OBSLTYPE
280
     0
  9
$INTERSECTIONDISPLAY
280
     0
  9
$INTERSECTIONCOLOR
 70
   257
  9
$DIMASSOC
280
     1
  9
$PROJECTNAME
  1

  9
$CAMERADISPLAY
290
     0
  9
$LENSLENGTH
 40
50.0
  9
$CAMERAHEIGHT
 40
0.0
  9
$STEPSPERSEC
 40
2.0
  9
$STEPSIZE
 40
6.0
  9
$3DDWFPREC
 40
2.0
  9
$PSOLWIDTH
 40
0.25
  9
$PSOLHEIGHT
 40
4.0
  9
$LOFTANG1
 40
1.570796326794896
  9
$LOFTANG2
 40
1.570796326794896
  9
$LOFTMAG1
 40
0.0
  9
$LOFTMAG2
 40
0.0
  9
$LOFTPARAM
 70
     7
  9
$LOFTNORMALS
280
     1
  9
$LATITUDE
 40
37.795
  9
$LONGITUDE
 40
-122.394
  9
$NORTHDIRECTION
 40
0.0
  9
$TIMEZONE
 70
 -8000
  9
$LIGHTGLYPHDISPLAY
280
     1
  9
$TILEMODELIGHTSYNCH
280
     1
  9
$CMATERIAL
347
11
  9
$SOLIDHIST
280
     1
  9
$SHOWHIST
280
     1
  9
$DWFFRAME
280
     2
  9
$DGNFRAME
280
     0
  9
$REALWORLDSCALE
290
     1
  9
$INTERFERECOLOR
 62
     1
  9
$INTERFEREOBJVS
345
33
  9
$INTERFEREVPVS
346
30
  9
$CSHADOW
280
     0
  9
$SHADOWPLANELOCATION
 40
0.0
  0
ENDSEC
  0
SECTION
  2
CLASSES
  0
CLASS
  1
ACDBDICTIONARYWDFLT
  2
AcDbDictionaryWithDefault
  3
ObjectDBX Classes
 90
        0
 91
        1
280
     0
281
     0
  0
CLASS
  1
MATERIAL
  2
AcDbMaterial
  3
ObjectDBX Classes
 90
     1153
 91
        3
280
     0
281
     0
  0
CLASS
  1
VISUALSTYLE
  2
AcDbVisualStyle
  3
ObjectDBX Classes
 90
     4095
 91
       26
280
     0
281
     0
  0
CLASS
  1
SCALE
  2
AcDbScale
  3
ObjectDBX Classes
 90
     1153
 91
       33
280
     0
281
     0
  0
CLASS
  1
TABLESTYLE
  2
AcDbTableStyle
  3
ObjectDBX Classes
 90
     4095
 91
        1
280
     0
281
     0
  0
CLASS
  1
MLEADERSTYLE
  2
AcDbMLeaderStyle
  3
ACDB_MLEADERSTYLE_CLASS
 90
     4095
 91
        1
280
     0
281
     0
  0
CLASS
  1
CELLSTYLEMAP
  2
AcDbCellStyleMap
  3
ObjectDBX Classes
 90
     1152
 91
        1
280
     0
281
     0
  0
CLASS
  1
DICTIONARYVAR
  2
AcDbDictionaryVar
  3
ObjectDBX Classes
 90
        0
 91
       14
280
     0
281
     0
  0
CLASS
  1
ACDBSECTIONVIEWSTYLE
  2
AcDbSectionViewStyle
  3
ObjectDBX Classes
 90
     1025
 91
        2
280
     0
281
     0
  0
CLASS
  1
ACDBDETAILVIEWSTYLE
  2
AcDbDetailViewStyle
  3
ObjectDBX Classes
 90
     1025
 91
        2
280
     0
281
     0
  0
CLASS
  1
EXACXREFPANELOBJECT
  2
ExAcXREFPanelObject
  3
EXAC_ESW
 90
     1025
 91
        0
280
     0
281
     0
  0
CLASS
  1
NPOCOLLECTION
  2
AcDbImpNonPersistentObjectsCollection
  3
ObjectDBX Classes
 90
     1153
 91
        0
280
     0
281
     0
  0
CLASS
  1
PLOTSETTINGS
  2
AcDbPlotSettings
  3
ObjectDBX Classes
 90
        0
 91
        1
280
     0
281
     0
  0
CLASS
  1
SORTENTSTABLE
  2
AcDbSortentsTable
  3
ObjectDBX Classes
 90
        0
 91
        0
280
     0
281
     0
  0
ENDSEC
  0
SECTION
  2
TABLES
  0
TABLE
  2
VPORT
  5
8
102
{ACAD_XDICTIONARY
360
160
102
}
330
0
100
AcDbSymbolTable
 70
     1
  0
VPORT
  5
62
330
8
100
AcDbSymbolTableRecord
100
AcDbViewportTableRecord
  2
*Active
 70
     0
 10
0.0
 20
0.0
 11
1.0
 21
1.0
 12
287.1873596800407
 22
1893.253973259699
 13
0.0
 23
0.0
 14
1.0
 24
1.0
 15
0.0
 25
0.0
 16
0.0
 26
0.0
 36
1.0
 17
0.0
 27
0.0
 37
0.0
 40
31.24473591560513
 41
2.032679738562091
 42
50.0
 43
0.0
 44
0.0
 50
0.0
 51
0.0
 71
     0
 72
   100
 73
     1
 74
     1
 75
     0
 76
     0
 77
     0
 78
     0
281
     0
 65
     1
110
0.0
120
0.0
130
0.0
111
1.0
121
0.0
131
0.0
112
0.0
122
1.0
132
0.0
 79
     0
146
0.0
348
2F
 60
     3
 61
     5
292
     1
282
     1
141
0.0
142
0.0
 63
   250
421
  3355443
1001
ACAD_NAV_VCDISPLAY
1070
     3
  0
ENDTAB
  0
TABLE
  2
LTYPE
  5
5
330
0
100
AcDbSymbolTable
 70
     2
  0
LTYPE
  5
66
330
5
100
AcDbSymbolTableRecord
100
AcDbLinetypeTableRecord
  2
ByBlock
 70
     0
  3

 72
    65
 73
     0
 40
0.0
  0
LTYPE
  5
67
330
5
100
AcDbSymbolTableRecord
100
AcDbLinetypeTableRecord
  2
ByLayer
 70
     0
  3

 72
    65
 73
     0
 40
0.0
  0
LTYPE
  5
68
330
5
100
AcDbSymbolTableRecord
100
AcDbLinetypeTableRecord
  2
Continuous
 70
     0
  3
Solid line
 72
    65
 73
     0
 40
0.0
  0
ENDTAB
  0
TABLE
  2
LAYER
  5
2
102
{ACAD_XDICTIONARY
360
209
102
}
330
0
100
AcDbSymbolTable
 70
    11
  0
LAYER
  5
5F
330
2
100
AcDbSymbolTableRecord
100
AcDbLayerTableRecord
  2
0
 70
     0
 62
     7
  6
Continuous
370
    -3
390
F
347
21
348
0
  0
LAYER
  5
AF
330
2
100
AcDbSymbolTableRecord
100
AcDbLayerTableRecord
  2
Sketch Geometry(DIN)
 70
     0
 62
     7
  6
Continuous
370
    50
390
F
347
21
348
0
  0
LAYER
  5
B0
330
2
100
AcDbSymbolTableRecord
100
AcDbLayerTableRecord
  2
Sketch Geometry(ISO)
 70
     0
 62
     7
  6
Continuous
370
    50
390
F
347
21
348
0
  0
LAYER
  5
B9
330
2
100
AcDbSymbolTableRecord
100
AcDbLayerTableRecord
  2
Symbole(DIN)
 70
     0
 62
     7
  6
Continuous
370
    25
390
F
347
21
348
0
  0
LAYER
  5
BA
330
2
100
AcDbSymbolTableRecord
100
AcDbLayerTableRecord
  2
Symbols(ISO)
 70
     0
 62
     7
  6
Continuous
370
    25
390
F
347
21
348
0
  0
LAYER
  5
C2
330
2
100
AcDbSymbolTableRecord
100
AcDbLayerTableRecord
  2
Visible Edges(ISO)
 70
     0
 62
     7
  6
Continuous
370
    50
390
F
347
21
348
0
  0
LAYER
  5
1AB
330
2
100
AcDbSymbolTableRecord
100
AcDbLayerTableRecord
  2
Defpoints
 70
     0
 62
     7
  6
Continuous
290
     0
370
    -3
390
F
347
21
348
0
  0
LAYER
  5
2B6
102
{ACAD_XDICTIONARY
360
2B7
102
}
330
2
100
AcDbSymbolTableRecord
100
AcDbLayerTableRecord
  2
TEMPLATE
 70
     0
 62
     1
  6
Continuous
370
    -3
390
F
347
21
348
0
  0
LAYER
  5
2B8
102
{ACAD_XDICTIONARY
360
2B9
102
}
330
2
100
AcDbSymbolTableRecord
100
AcDbLayerTableRecord
  2
SICHTBARE_KANTEN
 70
     0
 62
     7
  6
Continuous
370
    -3
390
F
347
21
348
0
  0
LAYER
  5
2BA
102
{ACAD_XDICTIONARY
360
2BB
102
}
330
2
100
AcDbSymbolTableRecord
100
AcDbLayerTableRecord
  2
P-0000
 70
     0
 62
     7
  6
Continuous
370
    -3
390
F
347
21
348
0
  0
LAYER
  5
DC0
102
{ACAD_XDICTIONARY
360
DC1
102
}
330
2
100
AcDbSymbolTableRecord
100
AcDbLayerTableRecord
  2
Centerline (ISO)
 70
     0
 62
     7
  6
Continuous
370
    25
390
F
347
21
348
0
  0
ENDTAB
  0
TABLE
  2
STYLE
  5
3
330
0
100
AcDbSymbolTable
 70
    21
  0
STYLE
  5
60
330
3
100
AcDbSymbolTableRecord
100
AcDbTextStyleTableRecord
  2
Standard
 70
     0
 40
0.0
 41
1.0
 50
0.0
 71
     0
 42
1.196541823576461
  3
monotxt.shx
  4

  0
STYLE
  5
65
330
3
100
AcDbSymbolTableRecord
100
AcDbTextStyleTableRecord
  2
Annotative
 70
     0
 40
0.0
 41
1.0
 50
0.0
 71
     0
 42
0.2
  3
txt
  4

1001
AcadAnnotative
1000
AnnotativeData
1002
{
1070
     1
1070
     1
1002
}
  0
STYLE
  5
C8
330
3
100
AcDbSymbolTableRecord
100
AcDbTextStyleTableRecord
  2
Current-DIN
 70
     0
 40
0.0
 41
1.0
 50
0.0
 71
     0
 42
0.2
  3
tahoma.ttf
  4

1001
ACAD
1000
Tahoma
1071
      256
  0
STYLE
  5
C9
330
3
100
AcDbSymbolTableRecord
100
AcDbTextStyleTableRecord
  2
Parts-List_2.0mm
 70
     0
 40
0.0
 41
0.899999976158142
 50
0.0
 71
     0
 42
0.2
  3
arial.ttf
  4

1001
ACAD
1000
Arial
1071
      256
  0
STYLE
  5
CA
330
3
100
AcDbSymbolTableRecord
100
AcDbTextStyleTableRecord
  2
Parts-List_2.0mmByLayer
 70
     0
 40
0.0
 41
0.899999976158142
 50
0.0
 71
     0
 42
0.2
  3
arial.ttf
  4

1001
ACAD
1000
Arial
1071
      256
  0
STYLE
  5
CB
330
3
100
AcDbSymbolTableRecord
100
AcDbTextStyleTableRecord
  2
Text__1.3mm
 70
     0
 40
0.0
 41
0.899999976158142
 50
0.0
 71
     0
 42
0.2
  3
arial.ttf
  4

1001
ACAD
1000
Arial
1071
      256
  0
STYLE
  5
CC
330
3
100
AcDbSymbolTableRecord
100
AcDbTextStyleTableRecord
  2
Text__1.5mm
 70
     0
 40
0.0
 41
0.899999976158142
 50
0.0
 71
     0
 42
0.2
  3
arial.ttf
  4

1001
ACAD
1000
Arial
1071
      256
  0
STYLE
  5
CD
330
3
100
AcDbSymbolTableRecord
100
AcDbTextStyleTableRecord
  2
Text__3.5mm
 70
     0
 40
0.0
 41
0.899999976158142
 50
0.0
 71
     0
 42
0.2
  3
arial.ttf
  4

1001
ACAD
1000
Arial
1071
      256
  0
STYLE
  5
CE
330
3
100
AcDbSymbolTableRecord
100
AcDbTextStyleTableRecord
  2
Text__3.5mmBigText
 70
     0
 40
0.0
 41
0.899999976158142
 50
0.0
 71
     0
 42
0.2
  3
arial.ttf
  4

1001
ACAD
1000
Arial
1071
      256
  0
STYLE
  5
CF
330
3
100
AcDbSymbolTableRecord
100
AcDbTextStyleTableRecord
  2
Text__3.5mmByLayer
 70
     0
 40
0.0
 41
0.899999976158142
 50
0.0
 71
     0
 42
0.2
  3
arial.ttf
  4

1001
ACAD
1000
Arial
1071
      256
  0
STYLE
  5
D0
330
3
100
AcDbSymbolTableRecord
100
AcDbTextStyleTableRecord
  2
Text__5.0mm
 70
     0
 40
0.0
 41
0.899999976158142
 50
0.0
 71
     0
 42
0.2
  3
arial.ttf
  4

1001
ACAD
1000
Arial
1071
      256
  0
STYLE
  5
D1
330
3
100
AcDbSymbolTableRecord
100
AcDbTextStyleTableRecord
  2
Text__5.0mmByLayer
 70
     0
 40
0.0
 41
0.899999976158142
 50
0.0
 71
     0
 42
0.2
  3
arial.ttf
  4

1001
ACAD
1000
Arial
1071
      256
  0
STYLE
  5
D2
330
3
100
AcDbSymbolTableRecord
100
AcDbTextStyleTableRecord
  2
Text_2.5mm
 70
     0
 40
0.0
 41
0.899999976158142
 50
0.0
 71
     0
 42
0.2
  3
arial.ttf
  4

1001
ACAD
1000
Arial
1071
      256
  0
STYLE
  5
D3
330
3
100
AcDbSymbolTableRecord
100
AcDbTextStyleTableRecord
  2
Text_3.5mm
 70
     0
 40
0.0
 41
0.899999976158142
 50
0.0
 71
     0
 42
0.2
  3
arial.ttf
  4

1001
ACAD
1000
Arial
1071
      256
  0
STYLE
  5
D4
330
3
100
AcDbSymbolTableRecord
100
AcDbTextStyleTableRecord
  2
Text_5.0mm
 70
     0
 40
0.0
 41
0.899999976158142
 50
0.0
 71
     0
 42
0.2
  3
arial.ttf
  4

1001
ACAD
1000
Arial
1071
      256
  0
STYLE
  5
D5
330
3
100
AcDbSymbolTableRecord
100
AcDbTextStyleTableRecord
  2
Text_5.0mmByLayer
 70
     0
 40
0.0
 41
0.899999976158142
 50
0.0
 71
     0
 42
0.2
  3
arial.ttf
  4

1001
ACAD
1000
Arial
1071
      256
  0
STYLE
  5
10E
330
3
100
AcDbSymbolTableRecord
100
AcDbTextStyleTableRecord
  2
Text Style20
 70
     0
 40
0.0
 41
1.0
 50
0.0
 71
     0
 42
0.2
  3
arial.ttf
  4

1001
ACAD
1000
Arial
1071
      256
  0
STYLE
  5
113
330
3
100
AcDbSymbolTableRecord
100
AcDbTextStyleTableRecord
  2
Text Style9
 70
     0
 40
0.0
 41
1.0
 50
0.0
 71
     0
 42
0.2
  3
arial.ttf
  4

1001
ACAD
1000
Arial
1071
      256
  0
STYLE
  5
115
330
3
100
AcDbSymbolTableRecord
100
AcDbTextStyleTableRecord
  2
Text Style40
 70
     0
 40
0.0
 41
1.0
 50
0.0
 71
     0
 42
0.2
  3
arial.ttf
  4

1001
ACAD
1000
Arial
1071
      256
  0
STYLE
  5
2BC
330
3
100
AcDbSymbolTableRecord
100
AcDbTextStyleTableRecord
  2
SX
 70
     0
 40
0.75
 41
1.0
 50
0.0
 71
     0
 42
0.75
  3
SIMPLEX.SHX
  4

  0
STYLE
  5
2BD
330
3
100
AcDbSymbolTableRecord
100
AcDbTextStyleTableRecord
  2
Franke
 70
     0
 40
0.0
 41
1.0
 50
0.0
 71
     0
 42
40.0
  3
swissc.ttf
  4

1001
ACAD
1000
Swis721 Cn BT
1071
       34
  0
ENDTAB
  0
TABLE
  2
VIEW
  5
6
330
0
100
AcDbSymbolTable
 70
     1
  0
ENDTAB
  0
TABLE
  2
UCS
  5
7
330
0
100
AcDbSymbolTable
 70
     0
  0
ENDTAB
  0
TABLE
  2
APPID
  5
9
330
0
100
AcDbSymbolTable
 70
    12
  0
APPID
  5
61
330
9
100
AcDbSymbolTableRecord
100
AcDbRegAppTableRecord
  2
ACAD
 70
     0
  0
APPID
  5
69
330
9
100
AcDbSymbolTableRecord
100
AcDbRegAppTableRecord
  2
AcadAnnotative
 70
     0
  0
APPID
  5
112
330
9
100
AcDbSymbolTableRecord
100
AcDbRegAppTableRecord
  2
AcadAnnoPO
 70
     0
  0
APPID
  5
18C
330
9
100
AcDbSymbolTableRecord
100
AcDbRegAppTableRecord
  2
ACAD_MLEADERVER
 70
     0
  0
APPID
  5
1E2
330
9
100
AcDbSymbolTableRecord
100
AcDbRegAppTableRecord
  2
ACAD_DSTYLE_DIMRADIAL_EXTENSION
 70
     0
  0
APPID
  5
2BF
330
9
100
AcDbSymbolTableRecord
100
AcDbRegAppTableRecord
  2
ACAD_PSEXT
 70
     0
  0
APPID
  5
2C0
330
9
100
AcDbSymbolTableRecord
100
AcDbRegAppTableRecord
  2
ACAD_NAV_VCDISPLAY
 70
     0
  0
APPID
  5
2C1
330
9
100
AcDbSymbolTableRecord
100
AcDbRegAppTableRecord
  2
TOP
 70
     0
  0
APPID
  5
5A4
330
9
100
AcDbSymbolTableRecord
100
AcDbRegAppTableRecord
  2
ACAD_EXEMPT_FROM_CAD_STANDARDS
 70
     0
  0
APPID
  5
A70
330
9
100
AcDbSymbolTableRecord
100
AcDbRegAppTableRecord
  2
ACAD_DSTYLE_DIMJAG
 70
     0
  0
APPID
  5
A71
330
9
100
AcDbSymbolTableRecord
100
AcDbRegAppTableRecord
  2
ACAD_DSTYLE_DIMTALN
 70
     0
  0
APPID
  5
DB3
330
9
100
AcDbSymbolTableRecord
100
AcDbRegAppTableRecord
  2
ACAD_DSTYLE_DIMJOGGED_JOGANGLE_SYMBOL
 70
     0
  0
ENDTAB
  0
TABLE
  2
DIMSTYLE
  5
A
330
0
100
AcDbSymbolTable
 70
    22
100
AcDbDimStyleTable
 71
     3
340
D6
340
63
340
F3
  0
DIMSTYLE
105
63
330
A
100
AcDbSymbolTableRecord
100
AcDbDimStyleTableRecord
  2
Standard
 70
     0
340
60
  0
DIMSTYLE
105
64
330
A
100
AcDbSymbolTableRecord
100
AcDbDimStyleTableRecord
  2
Annotative
 70
     0
340
60
1001
AcadAnnotative
1000
AnnotativeData
1002
{
1070
     1
1070
     1
1002
}
  0
DIMSTYLE
105
D6
330
A
100
AcDbSymbolTableRecord
100
AcDbDimStyleTableRecord
  2
KS-Marketing
 70
     0
  3
 in
 40
10.0
 41
3.5
 42
0.0
 43
12.0
 44
3.174999999999998
 45
0.00000001
 46
10.0
 73
     0
 74
     0
 77
     1
 78
     2
 79
     2
140
5.0
143
1.0
144
0.0393700787401575
146
0.7
147
0.8
171
     3
172
     1
176
     7
177
     7
178
     7
271
     1
274
     3
276
     2
277
     5
278
    44
284
     8
286
     8
340
D0
371
    25
372
    25
  0
DIMSTYLE
105
D7
330
A
100
AcDbSymbolTableRecord
100
AcDbDimStyleTableRecord
  2
KS-Marketing$7
 70
     0
  3
 in
 40
10.0
 41
5.0
 42
0.0
 43
12.0
 44
3.174999999999998
 45
0.00000001
 46
10.0
 73
     0
 74
     0
 77
     1
 78
     2
 79
     2
140
5.0
143
1.0
144
0.0393700787401575
146
0.7
147
0.8
171
     3
172
     1
176
     7
177
     7
178
     7
271
     1
274
     3
276
     2
277
     5
278
    44
284
     8
286
     8
340
D0
371
    25
372
    25
  0
DIMSTYLE
105
D8
330
A
100
AcDbSymbolTableRecord
100
AcDbDimStyleTableRecord
  2
KS-STANDARD
 70
     0
 40
10.0
 41
2.5
 42
0.0
 43
12.0
 44
3.174999999999998
 45
0.00000001
 46
10.0
 73
     0
 74
     0
 77
     1
 78
     8
 79
     2
140
3.5
143
0.03937
146
0.7142857142857145
147
0.8
171
     3
172
     1
176
     7
177
     7
178
     7
271
     1
274
     3
278
    44
284
     8
286
     8
340
D3
371
    25
372
    25
  0
DIMSTYLE
105
D9
330
A
100
AcDbSymbolTableRecord
100
AcDbDimStyleTableRecord
  2
KS-STANDARD$7
 70
     0
 40
10.0
 41
2.5
 42
0.0
 43
12.0
 44
3.174999999999998
 45
0.00000001
 46
10.0
 73
     0
 74
     0
 77
     1
 78
     8
 79
     2
140
3.5
143
0.03937
146
0.7142857142857145
147
0.8
171
     3
172
     1
176
     7
177
     7
178
     7
271
     1
274
     3
278
    44
284
     8
286
     8
340
D3
371
    25
372
    25
  0
DIMSTYLE
105
DA
330
A
100
AcDbSymbolTableRecord
100
AcDbDimStyleTableRecord
  2
KS-STANDARDBigText
 70
     0
 40
10.0
 41
5.0
 42
0.0
 43
12.0
 44
3.174999999999998
 45
0.00000001
 46
10.0
 73
     0
 74
     0
 77
     1
 78
     8
 79
     2
140
5.25
143
0.03937
146
0.4761904761904762
147
0.8
171
     3
172
     1
176
     7
177
     7
178
     7
271
     1
274
     3
278
    44
284
     8
286
     8
340
CE
371
    25
372
    25
  0
DIMSTYLE
105
DB
330
A
100
AcDbSymbolTableRecord
100
AcDbDimStyleTableRecord
  2
KS-STANDARDBigText$7
 70
     0
 40
10.0
 41
5.0
 42
0.0
 43
12.0
 44
3.174999999999998
 45
0.00000001
 46
10.0
 73
     0
 74
     0
 77
     1
 78
     8
 79
     2
140
5.25
143
0.03937
146
0.4761904761904762
147
0.8
171
     3
172
     1
176
     7
177
     7
178
     7
271
     1
274
     3
278
    44
284
     8
286
     8
340
CE
371
    25
372
    25
  0
DIMSTYLE
105
E6
330
A
100
AcDbSymbolTableRecord
100
AcDbDimStyleTableRecord
  2
Leader-Datum(DIN)
 70
     0
 40
10.0
 41
2.5
340
60
342
E7
  0
DIMSTYLE
105
EE
330
A
100
AcDbSymbolTableRecord
100
AcDbDimStyleTableRecord
  2
Leader-Datum(ISO)
 70
     0
 40
10.0
 41
2.5
340
60
342
E7
  0
DIMSTYLE
105
EF
330
A
100
AcDbSymbolTableRecord
100
AcDbDimStyleTableRecord
  2
Leader-Dot(DIN)
 70
     0
 40
10.0
 41
2.5
340
60
342
E7
  0
DIMSTYLE
105
F0
330
A
100
AcDbSymbolTableRecord
100
AcDbDimStyleTableRecord
  2
Leader-Dot(ISO)
 70
     0
 40
10.0
 41
2.5
340
60
342
E7
  0
DIMSTYLE
105
F1
330
A
100
AcDbSymbolTableRecord
100
AcDbDimStyleTableRecord
  2
Leader-Large(DIN)
 70
     0
 40
10.0
 41
5.0
340
60
342
E7
  0
DIMSTYLE
105
F2
330
A
100
AcDbSymbolTableRecord
100
AcDbDimStyleTableRecord
  2
Leader-OriginIndicator(DIN)
 70
     0
 40
10.0
 41
2.5
340
60
342
E7
  0
DIMSTYLE
105
F3
330
A
100
AcDbSymbolTableRecord
100
AcDbDimStyleTableRecord
  2
Leader-OriginIndicator(ISO)
 70
     0
 40
10.0
 41
2.5
340
60
342
E7
  0
DIMSTYLE
105
F4
330
A
100
AcDbSymbolTableRecord
100
AcDbDimStyleTableRecord
  2
Leader(DIN)
 70
     0
 40
10.0
 41
2.5
340
60
342
E7
  0
DIMSTYLE
105
F5
330
A
100
AcDbSymbolTableRecord
100
AcDbDimStyleTableRecord
  2
Leader(ISO)
 70
     0
 40
10.0
 41
2.5
340
60
342
E7
  0
DIMSTYLE
105
2BE
330
A
100
AcDbSymbolTableRecord
100
AcDbDimStyleTableRecord
  2
KINDRED
 70
     0
 40
1.5
 41
0.25
 42
0.25
 43
0.375
 44
0.25
140
0.375
141
0.25
146
0.75
147
0.25
176
   256
177
   256
178
   256
271
     5
272
     5
273
     5
277
     5
279
     2
340
2BC
  0
DIMSTYLE
105
DAF
330
A
100
AcDbSymbolTableRecord
100
AcDbDimStyleTableRecord
  2
AM_ISO
 70
     0
  4
"
 41
2.5
 42
1.0
 43
10.0
 44
1.0
 47
0.1
 48
0.1
 73
     0
 74
     0
 77
     1
 78
     8
 79
     2
140
3.5
141
0.0
143
0.0393701
146
0.71
147
1.5
172
     1
176
   256
177
   256
178
     2
271
     2
272
     3
274
     4
283
     0
284
     8
340
60
371
    -1
372
    -1
1001
ACAD_DSTYLE_DIMJOGGED_JOGANGLE_SYMBOL
1070
   384
1040
0.7853981633974483
  0
DIMSTYLE
105
DB0
330
A
100
AcDbSymbolTableRecord
100
AcDbDimStyleTableRecord
  2
AM_ISO$SF
 70
     0
  4
"
 41
2.5
 42
1.0
 43
10.0
 44
1.0
 47
0.1
 48
0.1
 73
     0
 74
     0
 75
     1
 76
     1
 77
     1
 78
     8
 79
     2
140
3.5
141
0.0
143
0.0393701
146
0.71
147
1.5
172
     1
176
   256
177
   256
178
     2
271
     2
272
     3
274
     4
283
     0
284
     8
340
60
371
    -1
372
    -1
1001
ACAD_DSTYLE_DIMJOGGED_JOGANGLE_SYMBOL
1070
   384
1040
0.7853981633974483
  0
DIMSTYLE
105
DB1
330
A
100
AcDbSymbolTableRecord
100
AcDbDimStyleTableRecord
  2
Iso mine
 70
     0
 40
12.0
 41
2.0
 42
0.625
 43
2.0
 44
0.25
 48
0.000000001
 50
90.0
 73
     0
 74
     0
 78
     9
140
2.0
141
2.0
143
0.03937007874016
146
0.5
147
0.625
171
     3
172
     1
176
     5
177
    99
178
   256
271
     1
272
     1
274
     3
284
     8
340
60
371
    -1
372
    -1
1001
ACAD_DSTYLE_DIMJAG
1070
   388
1040
1.5
1001
ACAD_DSTYLE_DIMTALN
1070
   392
1070
     0
1001
ACAD_DSTYLE_DIMJOGGED_JOGANGLE_SYMBOL
1070
   384
1040
1.570796326794896
  0
DIMSTYLE
105
DB2
330
A
100
AcDbSymbolTableRecord
100
AcDbDimStyleTableRecord
  2
B
 70
     0
 40
7.62
 41
3.5
 42
0.3125
 43
0.7
 44
1.0
 73
     0
 74
     0
 77
     1
140
3.5
141
0.045
147
0.3
271
     0
272
     0
289
     2
340
CD
341
E7
342
E7
1001
ACAD_DSTYLE_DIMJAG
1070
   388
1040
1.5
1001
ACAD_DSTYLE_DIMTALN
1070
   392
1070
     0
  0
ENDTAB
  0
TABLE
  2
BLOCK_RECORD
  5
1
330
0
100
AcDbSymbolTable
 70
     7
  0
BLOCK_RECORD
  5
77
330
1
100
AcDbSymbolTableRecord
100
AcDbBlockTableRecord
  2
*Model_Space
340
7A
 70
     0
280
     1
281
     0
  0
BLOCK_RECORD
  5
73
330
1
100
AcDbSymbolTableRecord
100
AcDbBlockTableRecord
  2
*Paper_Space
340
76
 70
     0
280
     1
281
     0
  0
BLOCK_RECORD
  5
7B
330
1
100
AcDbSymbolTableRecord
100
AcDbBlockTableRecord
  2
*Paper_Space0
340
7E
 70
     0
280
     1
281
     0
  0
BLOCK_RECORD
  5
DC
330
1
100
AcDbSymbolTableRecord
100
AcDbBlockTableRecord
  2
DatumFilled45
340
0
 70
     0
280
     1
281
     0
  0
BLOCK_RECORD
  5
E7
330
1
100
AcDbSymbolTableRecord
100
AcDbBlockTableRecord
  2
_Closed
340
0
 70
     0
280
     1
281
     0
  0
BLOCK_RECORD
  5
F6
330
1
100
AcDbSymbolTableRecord
100
AcDbBlockTableRecord
  2
Title Blocks FKT-Marketing
340
0
 70
     0
280
     1
281
     0
  0
BLOCK_RECORD
  5
126
330
1
100
AcDbSymbolTableRecord
100
AcDbBlockTableRecord
  2
Borders Marketing Border
340
0
 70
     0
280
     1
281
     0
  0
BLOCK_RECORD
  5
2C4
330
1
100
AcDbSymbolTableRecord
100
AcDbBlockTableRecord
  2
A$C0CFB7172
340
0
 70
     0
280
     1
281
     0
  0
BLOCK_RECORD
  5
D2D
330
1
100
AcDbSymbolTableRecord
100
AcDbBlockTableRecord
  2
A$C0E7A597D
340
0
 70
     4
280
     1
281
     0
  0
ENDTAB
  0
ENDSEC
  0
SECTION
  2
BLOCKS
  0
BLOCK
  5
78
330
77
100
AcDbEntity
  8
0
100
AcDbBlockBegin
  2
*Model_Space
 70
     0
 10
0.0
 20
0.0
 30
0.0
  3
*Model_Space
  1

  0
ENDBLK
  5
79
330
77
100
AcDbEntity
  8
0
100
AcDbBlockEnd
  0
BLOCK
  5
74
330
73
100
AcDbEntity
 67
     1
  8
0
100
AcDbBlockBegin
  2
*Paper_Space
 70
     0
 10
0.0
 20
0.0
 30
0.0
  3
*Paper_Space
  1

  0
ENDBLK
  5
75
330
73
100
AcDbEntity
 67
     1
  8
0
100
AcDbBlockEnd
  0
BLOCK
  5
7C
330
7B
100
AcDbEntity
 67
     1
  8
0
100
AcDbBlockBegin
  2
*Paper_Space0
 70
     0
 10
0.0
 20
0.0
 30
0.0
  3
*Paper_Space0
  1

  0
ENDBLK
  5
7D
330
7B
100
AcDbEntity
 67
     1
  8
0
100
AcDbBlockEnd
  0
BLOCK
  5
DD
330
DC
100
AcDbEntity
  8
0
100
AcDbBlockBegin
  2
DatumFilled45
 70
     0
 10
0.0
 20
0.0
 30
0.0
  3
DatumFilled45
  1

  0
POLYLINE
  5
DF
330
DC
100
AcDbEntity
  8
0
 62
     0
100
AcDb2dPolyline
 66
     1
 10
0.0
 20
0.0
 30
0.0
 70
   128
  0
VERTEX
  5
E0
330
DF
100
AcDbEntity
  8
0
 62
     0
100
AcDbVertex
100
AcDb2dVertex
 10
0.0
 20
1.0
 30
0.0
  0
VERTEX
  5
E1
330
DF
100
AcDbEntity
  8
0
 62
     0
100
AcDbVertex
100
AcDb2dVertex
 10
0.0
 20
-1.0
 30
0.0
  0
VERTEX
  5
E3
330
DF
100
AcDbEntity
  8
0
 62
     0
100
AcDbVertex
100
AcDb2dVertex
 10
-1.0
 20
0.0
 30
0.0
  0
VERTEX
  5
E4
330
DF
100
AcDbEntity
  8
0
 62
     0
100
AcDbVertex
100
AcDb2dVertex
 10
0.0
 20
1.0
 30
0.0
  0
SEQEND
  5
E2
330
DF
100
AcDbEntity
  8
0
 62
     0
  0
SOLID
  5
E5
330
DC
100
AcDbEntity
  8
0
 62
     0
100
AcDbTrace
 10
0.0
 20
1.0
 30
0.0
 11
0.0
 21
-1.0
 31
0.0
 12
-1.0
 22
0.0
 32
0.0
 13
0.0
 23
1.0
 33
0.0
  0
ENDBLK
  5
DE
330
DC
100
AcDbEntity
  8
0
100
AcDbBlockEnd
  0
BLOCK
  5
EC
330
E7
100
AcDbEntity
  8
0
100
AcDbBlockBegin
  2
_Closed
 70
     0
 10
0.0
 20
0.0
 30
0.0
  3
_Closed
  1

  0
LINE
  5
E8
330
E7
100
AcDbEntity
  8
0
  6
ByBlock
 62
     0
370
    -2
100
AcDbLine
 10
-1.0
 20
0.1666666666666666
 30
0.0
 11
0.0
 21
0.0
 31
0.0
  0
LINE
  5
E9
330
E7
100
AcDbEntity
  8
0
  6
ByBlock
 62
     0
370
    -2
100
AcDbLine
 10
0.0
 20
0.0
 30
0.0
 11
-1.0
 21
-0.1666666666666666
 31
0.0
  0
LINE
  5
EA
330
E7
100
AcDbEntity
  8
0
  6
ByBlock
 62
     0
370
    -2
100
AcDbLine
 10
-1.0
 20
0.1666666666666666
 30
0.0
 11
-1.0
 21
-0.1666666666666666
 31
0.0
  0
LINE
  5
EB
330
E7
100
AcDbEntity
  8
0
  6
ByBlock
 62
     0
370
    -2
100
AcDbLine
 10
0.0
 20
0.0
 30
0.0
 11
-1.0
 21
0.0
 31
0.0
  0
ENDBLK
  5
ED
330
E7
100
AcDbEntity
  8
0
100
AcDbBlockEnd
  0
BLOCK
  5
F7
330
F6
100
AcDbEntity
  8
0
100
AcDbBlockBegin
  2
Title Blocks FKT-Marketing
 70
     2
 10
0.0
 20
0.0
 30
0.0
  3
Title Blocks FKT-Marketing
  1

  0
LINE
  5
F9
330
F6
100
AcDbEntity
  8
Sketch Geometry(DIN)
  6
Continuous
 62
     7
370
    50
100
AcDbLine
 10
97.44584133029604
 20
102.3483016652058
 30
0.0
 11
287.445841330296
 21
102.3483016652058
 31
0.0
  0
LINE
  5
FA
330
F6
100
AcDbEntity
  8
Sketch Geometry(DIN)
  6
Continuous
 62
     7
370
    25
100
AcDbLine
 10
279.9458413302961
 20
118.3483016652058
 30
0.0
 11
279.9458413302961
 21
102.3483016652058
 31
0.0
  0
LINE
  5
FB
330
F6
100
AcDbEntity
  8
Sketch Geometry(DIN)
  6
Continuous
 62
     7
370
    50
100
AcDbLine
 10
97.44584133029604
 20
118.3483016652057
 30
0.0
 11
287.445841330296
 21
118.3483016652058
 31
0.0
  0
LINE
  5
FC
330
F6
100
AcDbEntity
  8
Sketch Geometry(DIN)
  6
Continuous
 62
     7
370
    18
100
AcDbLine
 10
97.44584133029604
 20
109.8483016652057
 30
0.0
 11
152.945841330296
 21
109.8483016652057
 31
0.0
  0
LINE
  5
FD
330
F6
100
AcDbEntity
  8
Sketch Geometry(DIN)
  6
Continuous
 62
     7
370
    18
100
AcDbLine
 10
97.44584133029604
 20
114.0983016652057
 30
0.0
 11
152.945841330296
 21
114.0983016652057
 31
0.0
  0
LINE
  5
FE
330
F6
100
AcDbEntity
  8
Sketch Geometry(DIN)
  6
Continuous
 62
     7
370
    18
100
AcDbLine
 10
109.445841330296
 20
118.3483016652057
 30
0.0
 11
109.445841330296
 21
109.8483016652057
 31
0.0
  0
LINE
  5
FF
330
F6
100
AcDbEntity
  8
Sketch Geometry(DIN)
  6
Continuous
 62
     7
370
    50
100
AcDbLine
 10
97.44584133029604
 20
118.3483016652057
 30
0.0
 11
97.44584133029604
 21
102.3483016652058
 31
0.0
  0
LINE
  5
100
330
F6
100
AcDbEntity
  8
Sketch Geometry(DIN)
  6
Continuous
 62
     7
370
    50
100
AcDbLine
 10
177.945841330296
 20
102.3483016652058
 30
0.0
 11
177.945841330296
 21
118.3483016652057
 31
0.0
  0
LINE
  5
101
330
F6
100
AcDbEntity
  8
Sketch Geometry(DIN)
  6
Continuous
 62
     7
370
    50
100
AcDbLine
 10
287.445841330296
 20
102.3483016652058
 30
0.0
 11
287.445841330296
 21
118.3483016652058
 31
0.0
  0
LINE
  5
102
330
F6
100
AcDbEntity
  8
Sketch Geometry(DIN)
  6
Continuous
 62
     7
370
    50
100
AcDbLine
 10
152.945841330296
 20
118.3483016652057
 30
0.0
 11
152.945841330296
 21
102.3483016652058
 31
0.0
  0
LINE
  5
103
330
F6
100
AcDbEntity
  8
Sketch Geometry(DIN)
  6
Continuous
 62
     7
370
    25
100
AcDbLine
 10
272.4458413302961
 20
118.3483016652058
 30
0.0
 11
272.4458413302961
 21
102.3483016652058
 31
0.0
  0
LINE
  5
104
330
F6
100
AcDbEntity
  8
Sketch Geometry(DIN)
  6
Continuous
 62
     7
370
    18
100
AcDbLine
 10
137.445841330296
 20
114.0983016652057
 30
0.0
 11
137.445841330296
 21
118.3483016652057
 31
0.0
  0
LINE
  5
105
330
F6
100
AcDbEntity
  8
Sketch Geometry(DIN)
  6
Continuous
 62
     7
370
    18
100
AcDbLine
 10
147.445841330296
 20
114.0983016652057
 30
0.0
 11
147.445841330296
 21
118.3483016652057
 31
0.0
  0
MTEXT
  5
106
330
F6
100
AcDbEntity
  8
Symbole(DIN)
 62
     7
100
AcDbMText
 10
98.04584133029607
 20
111.9733016652057
 30
0.0
 40
1.49859994649887
 41
13.67019921938464
 46
0.0
 71
     4
 72
     1
  1
Drawn Date
  7
Text__1.5mm
 73
     1
 44
1.0
  0
MTEXT
  5
108
330
F6
100
AcDbEntity
  8
Symbole(DIN)
 62
     7
100
AcDbMText
 10
98.04584133029607
 20
105.81147494164
 30
0.0
 40
1.299999952316284
 41
54.54352265335209
 46
0.0
 71
     4
 72
     1
  3
\fArial|b0|i0;\W0.75;These drawings and specifications are the property of Franke Technology and Trademark Ltd. and shall not be reproduced, copied or transfered to any third party without the prior written permission of Franke Technology and Tradema
  1
rk Ltd., Hergiswil, Switzerland
  7
Text__1.3mm
 73
     2
 44
0.9442214369773862
  0
MTEXT
  5
109
330
F6
100
AcDbEntity
  8
Symbole(DIN)
 62
     7
100
AcDbMText
 10
98.04584133029607
 20
116.2233016652057
 30
0.0
 40
1.49859994649887
 41
15.73208693730343
 46
0.0
 71
     4
 72
     1
  1
\fArial|b0|i0;Drawing No.
  7
Text__1.5mm
 73
     1
 44
1.0
  0
MTEXT
  5
10A
330
F6
100
AcDbEntity
  8
Symbole(DIN)
 62
     7
100
AcDbMText
 10
283.695841330296
 20
116.3483016652058
 30
0.0
 40
1.49859994649887
 41
6.687050822926429
 46
0.0
 71
     5
 72
     1
  1
Sheets
  7
Text__1.5mm
 73
     1
 44
1.0
  0
MTEXT
  5
10B
330
F6
100
AcDbEntity
  8
Symbole(DIN)
 62
     7
100
AcDbMText
 10
142.445841330296
 20
116.2233016652057
 30
0.0
 40
1.49859994649887
 41
13.47054972792548
 46
0.0
 71
     5
 72
     1
  1
Revision
  7
Text__1.5mm
 73
     1
 44
1.0
  0
MTEXT
  5
10C
330
F6
100
AcDbEntity
  8
Symbole(DIN)
 62
     7
100
AcDbMText
 10
154.445841330296
 20
110.1134100823045
 30
0.0
 40
1.49859994649887
 41
34.18349976595322
 46
0.0
 71
     4
 72
     1
  1
\fArial|b0|i0;\H1.4986;Franke Küchentechnik AG\PCH-4663 Aarburg\PPhone:  +41 62 787 31 31\PInternet :  www.franke.com
  7
Text__3.5mm
 73
     2
 44
0.9442214369773862
  0
MTEXT
  5
10D
330
F6
100
AcDbEntity
  8
Symbole(DIN)
 62
     7
100
AcDbMText
 10
276.1958413302961
 20
116.3483016652058
 30
0.0
 40
1.49859994649887
 41
6.687050822926429
 46
0.0
 71
     5
 72
     1
  1
Sheet
  7
Text__1.5mm
 73
     1
 44
1.0
  0
ATTDEF
  5
10F
102
{ACAD_XDICTIONARY
360
134
102
}
330
F6
100
AcDbEntity
  8
Symbole(DIN)
 62
     7
100
AcDbText
 10
178.9069600206097
 20
110.5983016652057
 30
0.0
 40
5.0
  1
PCX 110 7 SI
  7
Text Style20
100
AcDbAttributeDefinition
280
     0
  3
Title
  2
Title_001
 70
     0
280
     0
  0
ATTDEF
  5
114
102
{ACAD_XDICTIONARY
360
137
102
}
330
F6
100
AcDbEntity
  8
Symbole(DIN)
 62
     7
100
AcDbText
 10
179.1211482935335
 20
104.582953801352
 30
0.0
 40
3.499999940395355
  1
installing document (BUNA)
  7
Text Style9
100
AcDbAttributeDefinition
280
     0
  3
Auxiliary_Remark1
  2
Auxiliary_Remark1_001
 70
     0
280
     0
  0
ATTDEF
  5
116
102
{ACAD_XDICTIONARY
360
13A
102
}
330
F6
100
AcDbEntity
  8
Symbole(DIN)
 62
     7
100
AcDbText
 10
150.195841330296
 20
115.2233016503045
 30
0.0
 40
2.000000029802321
  1

  7
Text Style40
 72
     1
 11
150.195841330296
 21
116.2233016652057
 31
0.0
100
AcDbAttributeDefinition
280
     0
  3
Revision_Index_1
  2
Revision_Index_1
 70
     0
 74
     2
280
     0
  0
ATTDEF
  5
117
102
{ACAD_XDICTIONARY
360
13D
102
}
330
F6
100
AcDbEntity
  8
Symbole(DIN)
 62
     7
100
AcDbText
 10
109.9298795277495
 20
115.2362620870597
 30
0.0
 40
2.000000029802321
  1
0056-195608
  7
Text Style40
100
AcDbAttributeDefinition
280
     0
  3
Document_Number
  2
Document_Number_001
 70
     0
280
     0
  0
ATTDEF
  5
118
102
{ACAD_XDICTIONARY
360
140
102
}
330
F6
100
AcDbEntity
  8
Symbole(DIN)
 62
     7
100
AcDbText
 10
109.9639859402631
 20
110.9862620870597
 30
0.0
 40
2.000000029802321
  1
21.06.2011
  7
Text Style40
100
AcDbAttributeDefinition
280
     0
  3
Drawn_Date
  2
Drawn_Date_001
 70
     0
280
     0
  0
ATTDEF
  5
119
102
{ACAD_XDICTIONARY
360
143
102
}
330
F6
100
AcDbEntity
  8
Symbole(DIN)
 62
     7
100
AcDbText
 10
275.0597567463942
 20
105.8483016652058
 30
0.0
 40
5.0
  1
4
 41
0.9
  7
Text__5.0mm
100
AcDbAttributeDefinition
280
     0
  3
Sheet number
  2
Sheet_number_001
 70
     0
280
     0
  0
ATTDEF
  5
11A
102
{ACAD_XDICTIONARY
360
146
102
}
330
F6
100
AcDbEntity
  8
Symbole(DIN)
 62
     7
100
AcDbText
 10
282.4738085881406
 20
105.880702756611
 30
0.0
 40
5.0
  1
6
 41
0.9
  7
Text__5.0mm
100
AcDbAttributeDefinition
280
     0
  3
Number of sheets
  2
Number_of_sheets_001
 70
     0
280
     0
  0
ENDBLK
  5
F8
330
F6
100
AcDbEntity
  8
0
100
AcDbBlockEnd
  0
BLOCK
  5
127
330
126
100
AcDbEntity
  8
0
100
AcDbBlockBegin
  2
Borders Marketing Border
 70
     0
 10
0.0
 20
0.0
 30
0.0
  3
Borders Marketing Border
  1

  0
LINE
  5
129
330
126
100
AcDbEntity
  8
Sketch Geometry(ISO)
100
AcDbLine
 10
10.0
 20
287.0
 30
0.0
 11
200.0
 21
287.0
 31
0.0
  0
LINE
  5
12A
330
126
100
AcDbEntity
  8
Sketch Geometry(ISO)
100
AcDbLine
 10
200.0
 20
287.0
 30
0.0
 11
200.0
 21
10.00000000000003
 31
0.0
  0
LINE
  5
12B
330
126
100
AcDbEntity
  8
Sketch Geometry(ISO)
100
AcDbLine
 10
200.0
 20
10.00000000000002
 30
0.0
 11
10.00000000000007
 21
10.0
 31
0.0
  0
LINE
  5
12C
330
126
100
AcDbEntity
  8
Sketch Geometry(ISO)
100
AcDbLine
 10
10.00000000000005
 20
10.0
 30
0.0
 11
10.0
 21
287.0
 31
0.0
  0
ENDBLK
  5
128
330
126
100
AcDbEntity
  8
0
100
AcDbBlockEnd
  0
BLOCK
  5
35E
330
2C4
100
AcDbEntity
  8
0
100
AcDbBlockBegin
  2
A$C0CFB7172
 70
     0
 10
0.0
 20
0.0
 30
0.0
  3
A$C0CFB7172
  1

  0
ARC
  5
2C5
330
2C4
100
AcDbEntity
  8
SICHTBARE_KANTEN
  6
Continuous
100
AcDbCircle
 10
3.769382597267906
 20
39.5396236020674
 30
0.0
 40
39.53962362205246
100
AcDbArc
 50
266.5563173982297
 51
270.0
  0
TEXT
  5
2C6
330
2C4
100
AcDbEntity
  8
P-0000
  6
Continuous
 62
    22
100
AcDbText
 10
0.9495493172821909
 20
11.71471938182408
 30
0.0
 40
0.36
  1
CUT-OUT TEMPLATE FOR CPX120
  7
Franke
100
AcDbText
1001
TOP
1070
     1
  0
LINE
  5
2C7
330
2C4
100
AcDbEntity
  8
P-0000
  6
Continuous
 62
    22
100
AcDbLine
 10
0.8241333325068183
 20
15.17109130845206
 30
0.0
 11
0.862167650029761
 21
15.17109130845206
 31
0.0
  0
LINE
  5
2C8
330
2C4
100
AcDbEntity
  8
P-0000
  6
Continuous
 62
    22
100
AcDbLine
 10
1.927128540673976
 20
14.90485108579032
 30
0.0
 11
1.965162858196919
 21
14.90485108579032
 31
0.0
  0
LINE
  5
2C9
330
2C4
100
AcDbEntity
  8
P-0000
  6
Continuous
 62
    22
100
AcDbLine
 10
1.908111381913869
 20
14.79074813322081
 30
0.0
 11
1.908111381913869
 21
14.90485108579032
 31
0.0
  0
LINE
  5
2CA
330
2C4
100
AcDbEntity
  8
P-0000
  6
Continuous
 62
    22
100
AcDbLine
 10
1.908111381913869
 20
14.90485108579032
 30
0.0
 11
1.870077064390926
 21
14.90485108579032
 31
0.0
  0
LINE
  5
2CB
330
2C4
100
AcDbEntity
  8
P-0000
  6
Continuous
 62
    22
100
AcDbLine
 10
1.870077064390926
 20
14.90485108579032
 30
0.0
 11
1.794008429344131
 21
15.17109130845206
 31
0.0
  0
LINE
  5
2CC
330
2C4
100
AcDbEntity
  8
P-0000
  6
Continuous
 62
    22
100
AcDbLine
 10
1.794008429344131
 20
15.17109130845206
 30
0.0
 11
1.82823931511669
 21
15.17109130845206
 31
0.0
  0
LINE
  5
2CD
330
2C4
100
AcDbEntity
  8
P-0000
  6
Continuous
 62
    22
100
AcDbLine
 10
1.82823931511669
 20
15.17109130845206
 30
0.0
 11
1.82823931511669
 21
15.28519426102089
 31
0.0
  0
LINE
  5
2CE
330
2C4
100
AcDbEntity
  8
P-0000
  6
Continuous
 62
    22
100
AcDbLine
 10
1.82823931511669
 20
15.28519426102089
 30
0.0
 11
1.485930457409295
 21
15.28519426102089
 31
0.0
  0
LINE
  5
2CF
330
2C4
100
AcDbEntity
  8
P-0000
  6
Continuous
 62
    22
100
AcDbLine
 10
1.485930457409295
 20
15.28519426102089
 30
0.0
 11
1.485930457409295
 21
15.17109130845206
 31
0.0
  0
LINE
  5
2D0
330
2C4
100
AcDbEntity
  8
P-0000
  6
Continuous
 62
    22
100
AcDbLine
 10
1.485930457409295
 20
15.17109130845206
 30
0.0
 11
1.520161343177306
 21
15.17109130845206
 31
0.0
  0
LINE
  5
2D1
330
2C4
100
AcDbEntity
  8
P-0000
  6
Continuous
 62
    22
100
AcDbLine
 10
1.520161343177306
 20
15.17109130845206
 30
0.0
 11
1.459306435142963
 21
14.90485108579032
 31
0.0
  0
LINE
  5
2D2
330
2C4
100
AcDbEntity
  8
P-0000
  6
Continuous
 62
    22
100
AcDbLine
 10
1.459306435142963
 20
14.90485108579032
 30
0.0
 11
1.413665254112885
 21
14.90485108579032
 31
0.0
  0
LINE
  5
2D3
330
2C4
100
AcDbEntity
  8
P-0000
  6
Continuous
 62
    22
100
AcDbLine
 10
1.413665254112885
 20
14.90485108579032
 30
0.0
 11
1.413665254112885
 21
14.79074813322081
 31
0.0
  0
LINE
  5
2D4
330
2C4
100
AcDbEntity
  8
P-0000
  6
Continuous
 62
    22
100
AcDbLine
 10
1.413665254112885
 20
14.79074813322081
 30
0.0
 11
1.619050568738231
 21
14.79074813322081
 31
0.0
  0
LINE
  5
2D5
330
2C4
100
AcDbEntity
  8
P-0000
  6
Continuous
 62
    22
100
AcDbLine
 10
1.619050568738231
 20
14.79074813322081
 30
0.0
 11
1.619050568738231
 21
14.90485108579032
 31
0.0
  0
LINE
  5
2D6
330
2C4
100
AcDbEntity
  8
P-0000
  6
Continuous
 62
    22
100
AcDbLine
 10
1.619050568738231
 20
14.90485108579032
 30
0.0
 11
1.581016251214379
 21
14.90485108579032
 31
0.0
  0
LINE
  5
2D7
330
2C4
100
AcDbEntity
  8
P-0000
  6
Continuous
 62
    22
100
AcDbLine
 10
1.581016251214379
 20
14.90485108579032
 30
0.0
 11
1.598403367796009
 21
14.98091972083644
 31
0.0
  0
LINE
  5
2D8
330
2C4
100
AcDbEntity
  8
P-0000
  6
Continuous
 62
    22
100
AcDbLine
 10
1.598403367796009
 20
14.98091972083644
 30
0.0
 11
1.696205898571889
 21
14.98091972083644
 31
0.0
  0
LINE
  5
2D9
330
2C4
100
AcDbEntity
  8
P-0000
  6
Continuous
 62
    22
100
AcDbLine
 10
1.696205898571889
 20
14.98091972083644
 30
0.0
 11
1.717939794299155
 21
14.90485108579032
 31
0.0
  0
LINE
  5
2DA
330
2C4
100
AcDbEntity
  8
P-0000
  6
Continuous
 62
    22
100
AcDbLine
 10
1.717939794299155
 20
14.90485108579032
 30
0.0
 11
1.660888318012467
 21
14.90485108579032
 31
0.0
  0
LINE
  5
2DB
330
2C4
100
AcDbEntity
  8
P-0000
  6
Continuous
 62
    22
100
AcDbLine
 10
1.660888318012467
 20
14.90485108579032
 30
0.0
 11
1.660888318012467
 21
14.79074813322081
 31
0.0
  0
LINE
  5
2DC
330
2C4
100
AcDbEntity
  8
P-0000
  6
Continuous
 62
    22
100
AcDbLine
 10
1.660888318012467
 20
14.79074813322081
 30
0.0
 11
1.908111381913869
 21
14.79074813322081
 31
0.0
  0
LINE
  5
2DD
330
2C4
100
AcDbEntity
  8
P-0000
  6
Continuous
 62
    22
100
AcDbLine
 10
2.459608985997903
 20
14.50549075179852
 30
0.0
 11
2.459608985997903
 21
15.57045164244387
 31
0.0
  0
LINE
  5
2DE
330
2C4
100
AcDbEntity
  8
P-0000
  6
Continuous
 62
    22
100
AcDbLine
 10
2.459608985997903
 20
15.57045164244387
 30
0.0
 11
1.394648095353687
 21
15.57045164244387
 31
0.0
  0
LINE
  5
2DF
330
2C4
100
AcDbEntity
  8
P-0000
  6
Continuous
 62
    22
100
AcDbLine
 10
1.394648095353687
 20
15.57045164244387
 30
0.0
 11
1.394648095353687
 21
14.50549075179852
 31
0.0
  0
LINE
  5
2E0
330
2C4
100
AcDbEntity
  8
P-0000
  6
Continuous
 62
    22
100
AcDbLine
 10
1.394648095353687
 20
14.50549075179852
 30
0.0
 11
2.459608985997903
 21
14.50549075179852
 31
0.0
  0
LINE
  5
2E1
330
2C4
100
AcDbEntity
  8
P-0000
  6
Continuous
 62
    22
100
AcDbLine
 10
1.61579048437855
 20
15.05698835588278
 30
0.0
 11
1.674472002843714
 21
15.05698835588278
 31
0.0
  0
LINE
  5
2E2
330
2C4
100
AcDbEntity
  8
P-0000
  6
Continuous
 62
    22
100
AcDbLine
 10
1.674472002843714
 20
15.05698835588278
 30
0.0
 11
1.64187115925236
 21
15.17109130845206
 31
0.0
  0
LINE
  5
2E3
330
2C4
100
AcDbEntity
  8
P-0000
  6
Continuous
 62
    22
100
AcDbLine
 10
1.64187115925236
 20
15.17109130845206
 30
0.0
 11
1.61579048437855
 21
15.05698835588278
 31
0.0
  0
LINE
  5
2E4
330
2C4
100
AcDbEntity
  8
P-0000
  6
Continuous
 62
    22
100
AcDbLine
 10
0.386386350019194
 20
15.16835152703648
 30
0.0
 11
0.386386350019194
 21
14.90485108579032
 31
0.0
  0
LINE
  5
2E5
330
2C4
100
AcDbEntity
  8
P-0000
  6
Continuous
 62
    22
100
AcDbLine
 10
0.3843496726194928
 20
14.90345993734031
 30
0.0
 11
0.3336372492558723
 21
14.90345993734031
 31
0.0
  0
LINE
  5
2E6
330
2C4
100
AcDbEntity
  8
P-0000
  6
Continuous
 62
    22
100
AcDbLine
 10
0.3336372492558723
 20
14.90345993734031
 30
0.0
 11
0.3331085705658836
 21
14.79074813322081
 31
0.0
  0
LINE
  5
2E7
330
2C4
100
AcDbEntity
  8
P-0000
  6
Continuous
 62
    22
100
AcDbLine
 10
0.3296872047067438
 20
14.79074813322081
 30
0.0
 11
0.5959274273682525
 21
14.79074813322081
 31
0.0
  0
LINE
  5
2E8
330
2C4
100
AcDbEntity
  8
P-0000
  6
Continuous
 62
    22
100
AcDbLine
 10
0.5959274273682525
 20
14.79074813322081
 30
0.0
 11
0.5959274273682525
 21
14.90485108579032
 31
0.0
  0
LINE
  5
2E9
330
2C4
100
AcDbEntity
  8
P-0000
  6
Continuous
 62
    22
100
AcDbLine
 10
0.5959274273682525
 20
14.90485108579032
 30
0.0
 11
0.5578931098453097
 21
14.90485108579032
 31
0.0
  0
LINE
  5
2EA
330
2C4
100
AcDbEntity
  8
P-0000
  6
Continuous
 62
    22
100
AcDbLine
 10
0.5578931098453097
 20
14.90485108579032
 30
0.0
 11
0.5578931098453097
 21
14.99233001609373
 31
0.0
  0
LINE
  5
2EB
330
2C4
100
AcDbEntity
  8
P-0000
  6
Continuous
 62
    22
100
AcDbLine
 10
0.5578931098453097
 20
14.99233001609373
 30
0.0
 11
0.6339617448911952
 21
14.99233001609373
 31
0.0
  0
LINE
  5
2EC
330
2C4
100
AcDbEntity
  8
P-0000
  6
Continuous
 62
    22
100
AcDbLine
 10
0.6339617448911952
 20
14.99233001609373
 30
0.0
 11
0.6339617448911952
 21
15.08361237814843
 31
0.0
  0
LINE
  5
2ED
330
2C4
100
AcDbEntity
  8
P-0000
  6
Continuous
 62
    22
100
AcDbLine
 10
0.6339617448911952
 20
15.08361237814843
 30
0.0
 11
0.5578931098453097
 21
15.08361237814843
 31
0.0
  0
LINE
  5
2EE
330
2C4
100
AcDbEntity
  8
P-0000
  6
Continuous
 62
    22
100
AcDbLine
 10
0.5578931098453097
 20
15.08361237814843
 30
0.0
 11
0.5578931098453097
 21
15.17109130845206
 31
0.0
  0
LINE
  5
2EF
330
2C4
100
AcDbEntity
  8
P-0000
  6
Continuous
 62
    22
100
AcDbLine
 10
0.5578931098453097
 20
15.17109130845206
 30
0.0
 11
0.6719960624141379
 21
15.17109130845206
 31
0.0
  0
LINE
  5
2F0
330
2C4
100
AcDbEntity
  8
P-0000
  6
Continuous
 62
    22
100
AcDbLine
 10
0.6719960624141379
 20
15.17109130845206
 30
0.0
 11
0.6719960624141379
 21
15.13305699092866
 31
0.0
  0
LINE
  5
2F1
330
2C4
100
AcDbEntity
  8
P-0000
  6
Continuous
 62
    22
100
AcDbLine
 10
0.6719960624141379
 20
15.13305699092866
 30
0.0
 11
0.7860990149838756
 21
15.13305699092866
 31
0.0
  0
LINE
  5
2F2
330
2C4
100
AcDbEntity
  8
P-0000
  6
Continuous
 62
    22
100
AcDbLine
 10
0.7860990149838756
 20
15.13305699092866
 30
0.0
 11
0.7860990149838756
 21
15.28519426102089
 31
0.0
  0
LINE
  5
2F3
330
2C4
100
AcDbEntity
  8
P-0000
  6
Continuous
 62
    22
100
AcDbLine
 10
0.7860990149838756
 20
15.28519426102089
 30
0.0
 11
0.3296872047067438
 21
15.28519426102089
 31
0.0
  0
LINE
  5
2F4
330
2C4
100
AcDbEntity
  8
P-0000
  6
Continuous
 62
    22
100
AcDbLine
 10
0.3323285591250453
 20
15.28371487469867
 30
0.0
 11
0.3323285591250453
 21
15.17109130845206
 31
0.0
  0
LINE
  5
2F5
330
2C4
100
AcDbEntity
  8
P-0000
  6
Continuous
 62
    22
100
AcDbLine
 10
0.335673926654664
 20
15.16835152703648
 30
0.0
 11
0.386386350019194
 21
15.16835152703648
 31
0.0
  0
ARC
  5
2F6
330
2C4
100
AcDbEntity
  8
P-0000
  6
Continuous
 62
    22
100
AcDbCircle
 10
1.090373555168326
 20
15.13305699092866
 30
0.0
 40
0.0380343175230771
100
AcDbArc
 50
270.0000193187132
 51
89.99998633941322
  0
LINE
  5
2F7
330
2C4
100
AcDbEntity
  8
P-0000
  6
Continuous
 62
    22
100
AcDbLine
 10
1.090373564236898
 20
15.17109130845206
 30
0.0
 11
1.052339237645384
 21
15.17109130845206
 31
0.0
  0
LINE
  5
2F8
330
2C4
100
AcDbEntity
  8
P-0000
  6
Continuous
 62
    22
100
AcDbLine
 10
1.052339237645384
 20
15.17109130845206
 30
0.0
 11
1.052339237645384
 21
15.09502267340595
 31
0.0
  0
LINE
  5
2F9
330
2C4
100
AcDbEntity
  8
P-0000
  6
Continuous
 62
    22
100
AcDbLine
 10
1.052339237645384
 20
15.09502267340595
 30
0.0
 11
1.090373555168326
 21
15.09502267340595
 31
0.0
  0
LINE
  5
2FA
330
2C4
100
AcDbEntity
  8
P-0000
  6
Continuous
 62
    22
100
AcDbLine
 10
0.862167650029761
 20
14.90485108579032
 30
0.0
 11
0.8241333325068183
 21
14.90485108579032
 31
0.0
  0
LINE
  5
2FB
330
2C4
100
AcDbEntity
  8
P-0000
  6
Continuous
 62
    22
100
AcDbLine
 10
0.8241333325068183
 20
14.90485108579032
 30
0.0
 11
0.862167650029761
 21
14.90485108579032
 31
0.0
  0
LINE
  5
2FC
330
2C4
100
AcDbEntity
  8
P-0000
  6
Continuous
 62
    22
100
AcDbLine
 10
0.862167650029761
 20
14.90485108579032
 30
0.0
 11
0.862167650029761
 21
15.17109130845206
 31
0.0
  0
LINE
  5
2FD
330
2C4
100
AcDbEntity
  8
P-0000
  6
Continuous
 62
    22
100
AcDbLine
 10
0.862167650029761
 20
15.17109130845206
 30
0.0
 11
0.8241333325068183
 21
15.17109130845206
 31
0.0
  0
LINE
  5
2FE
330
2C4
100
AcDbEntity
  8
P-0000
  6
Continuous
 62
    22
100
AcDbLine
 10
0.8241333325068183
 20
15.17109130845206
 30
0.0
 11
0.8241333325068183
 21
15.28519426102089
 31
0.0
  0
LINE
  5
2FF
330
2C4
100
AcDbEntity
  8
P-0000
  6
Continuous
 62
    22
100
AcDbLine
 10
0.8241333325068183
 20
15.28519426102089
 30
0.0
 11
1.176211959347739
 21
15.28519426102089
 31
0.0
  0
ARC
  5
300
330
2C4
100
AcDbEntity
  8
P-0000
  6
Continuous
 62
    22
100
AcDbCircle
 10
1.189021030533723
 20
15.14698870500383
 30
0.0
 40
0.1387978674857786
100
AcDbArc
 50
299.3919370094448
 51
95.29512076159738
  0
LINE
  5
301
330
2C4
100
AcDbEntity
  8
P-0000
  6
Continuous
 62
    22
100
AcDbLine
 10
1.25714040708047
 20
15.02605649854941
 30
0.0
 11
1.299562301544057
 21
14.90485108579032
 31
0.0
  0
LINE
  5
302
330
2C4
100
AcDbEntity
  8
P-0000
  6
Continuous
 62
    22
100
AcDbLine
 10
1.299562301544057
 20
14.90485108579032
 30
0.0
 11
1.337596619066999
 21
14.90485108579032
 31
0.0
  0
LINE
  5
303
330
2C4
100
AcDbEntity
  8
P-0000
  6
Continuous
 62
    22
100
AcDbLine
 10
1.337596619066999
 20
14.90485108579032
 30
0.0
 11
1.337596619066999
 21
14.79074813322081
 31
0.0
  0
LINE
  5
304
330
2C4
100
AcDbEntity
  8
P-0000
  6
Continuous
 62
    22
100
AcDbLine
 10
1.337596619066999
 20
14.79074813322081
 30
0.0
 11
1.170245621966415
 21
14.79074813322081
 31
0.0
  0
LINE
  5
305
330
2C4
100
AcDbEntity
  8
P-0000
  6
Continuous
 62
    22
100
AcDbLine
 10
1.170245621966415
 20
14.79074813322081
 30
0.0
 11
1.090373555168326
 21
15.01895403835938
 31
0.0
  0
LINE
  5
306
330
2C4
100
AcDbEntity
  8
P-0000
  6
Continuous
 62
    22
100
AcDbLine
 10
1.090373555168326
 20
15.01895403835938
 30
0.0
 11
1.052339237645384
 21
15.01895403835938
 31
0.0
  0
LINE
  5
307
330
2C4
100
AcDbEntity
  8
P-0000
  6
Continuous
 62
    22
100
AcDbLine
 10
1.052339237645384
 20
15.01895403835938
 30
0.0
 11
1.052339237645384
 21
14.90485108579032
 31
0.0
  0
LINE
  5
308
330
2C4
100
AcDbEntity
  8
P-0000
  6
Continuous
 62
    22
100
AcDbLine
 10
1.052339237645384
 20
14.90485108579032
 30
0.0
 11
1.090373555168326
 21
14.90485108579032
 31
0.0
  0
LINE
  5
309
330
2C4
100
AcDbEntity
  8
P-0000
  6
Continuous
 62
    22
100
AcDbLine
 10
1.090373555168326
 20
14.90485108579032
 30
0.0
 11
1.090373555168326
 21
14.79074813322081
 31
0.0
  0
LINE
  5
30A
330
2C4
100
AcDbEntity
  8
P-0000
  6
Continuous
 62
    22
100
AcDbLine
 10
1.090373555168326
 20
14.79074813322081
 30
0.0
 11
0.8241333325068183
 21
14.79074813322081
 31
0.0
  0
LINE
  5
30B
330
2C4
100
AcDbEntity
  8
P-0000
  6
Continuous
 62
    22
100
AcDbLine
 10
0.8241333325068183
 20
14.79074813322081
 30
0.0
 11
0.8241333325068183
 21
14.90485108579032
 31
0.0
  0
LINE
  5
30C
330
2C4
100
AcDbEntity
  8
P-0000
  6
Continuous
 62
    22
100
AcDbLine
 10
0.2916528871828916
 20
14.50549075179852
 30
0.0
 11
1.356613777830744
 21
14.50549075179852
 31
0.0
  0
LINE
  5
30D
330
2C4
100
AcDbEntity
  8
P-0000
  6
Continuous
 62
    22
100
AcDbLine
 10
1.356613777830744
 20
14.50549075179852
 30
0.0
 11
1.356613777830744
 21
15.57045164244387
 31
0.0
  0
LINE
  5
30E
330
2C4
100
AcDbEntity
  8
P-0000
  6
Continuous
 62
    22
100
AcDbLine
 10
1.356613777830744
 20
15.57045164244387
 30
0.0
 11
0.2916528871828916
 21
15.57045164244387
 31
0.0
  0
LINE
  5
30F
330
2C4
100
AcDbEntity
  8
P-0000
  6
Continuous
 62
    22
100
AcDbLine
 10
0.2916528871828916
 20
15.57045164244387
 30
0.0
 11
0.2916528871828916
 21
14.50549075179852
 31
0.0
  0
LINE
  5
310
330
2C4
100
AcDbEntity
  8
P-0000
  6
Continuous
 62
    22
100
AcDbLine
 10
2.516660462283681
 20
15.17109130845206
 30
0.0
 11
2.516660462283681
 21
15.28519426102089
 31
0.0
  0
LINE
  5
311
330
2C4
100
AcDbEntity
  8
P-0000
  6
Continuous
 62
    22
100
AcDbLine
 10
2.516660462283681
 20
15.28519426102089
 30
0.0
 11
2.782900684946099
 21
15.28519426102089
 31
0.0
  0
LINE
  5
312
330
2C4
100
AcDbEntity
  8
P-0000
  6
Continuous
 62
    22
100
AcDbLine
 10
2.782900684946099
 20
15.28519426102089
 30
0.0
 11
2.782900684946099
 21
15.17109130845206
 31
0.0
  0
LINE
  5
313
330
2C4
100
AcDbEntity
  8
P-0000
  6
Continuous
 62
    22
100
AcDbLine
 10
2.782900684946099
 20
15.17109130845206
 30
0.0
 11
2.744866367422247
 21
15.17109130845206
 31
0.0
  0
LINE
  5
314
330
2C4
100
AcDbEntity
  8
P-0000
  6
Continuous
 62
    22
100
AcDbLine
 10
2.744866367422247
 20
15.17109130845206
 30
0.0
 11
2.744866367422247
 21
15.06769541140461
 31
0.0
  0
LINE
  5
315
330
2C4
100
AcDbEntity
  8
P-0000
  6
Continuous
 62
    22
100
AcDbLine
 10
2.744866367422247
 20
15.06769541140461
 30
0.0
 11
2.839952161228239
 21
15.17109130845206
 31
0.0
  0
LINE
  5
316
330
2C4
100
AcDbEntity
  8
P-0000
  6
Continuous
 62
    22
100
AcDbLine
 10
2.839952161228239
 20
15.17109130845206
 30
0.0
 11
2.801917843706206
 21
15.17109130845206
 31
0.0
  0
LINE
  5
317
330
2C4
100
AcDbEntity
  8
P-0000
  6
Continuous
 62
    22
100
AcDbLine
 10
2.801917843706206
 20
15.17109130845206
 30
0.0
 11
2.801917843706206
 21
15.28519426102089
 31
0.0
  0
LINE
  5
318
330
2C4
100
AcDbEntity
  8
P-0000
  6
Continuous
 62
    22
100
AcDbLine
 10
2.801917843706206
 20
15.28519426102089
 30
0.0
 11
3.030123748844772
 21
15.28519426102089
 31
0.0
  0
LINE
  5
319
330
2C4
100
AcDbEntity
  8
P-0000
  6
Continuous
 62
    22
100
AcDbLine
 10
3.030123748844772
 20
15.28519426102089
 30
0.0
 11
3.030123748844772
 21
15.17109130845206
 31
0.0
  0
LINE
  5
31A
330
2C4
100
AcDbEntity
  8
P-0000
  6
Continuous
 62
    22
100
AcDbLine
 10
3.030123748844772
 20
15.17109130845206
 30
0.0
 11
2.992089431321829
 21
15.17109130845206
 31
0.0
  0
LINE
  5
31B
330
2C4
100
AcDbEntity
  8
P-0000
  6
Continuous
 62
    22
100
AcDbLine
 10
2.992089431321829
 20
15.17109130845206
 30
0.0
 11
2.900044191733314
 21
15.0710016974278
 31
0.0
  0
LINE
  5
31C
330
2C4
100
AcDbEntity
  8
P-0000
  6
Continuous
 62
    22
100
AcDbLine
 10
2.900044191733314
 20
15.0710016974278
 30
0.0
 11
3.011106590081027
 21
14.90485108579032
 31
0.0
  0
LINE
  5
31D
330
2C4
100
AcDbEntity
  8
P-0000
  6
Continuous
 62
    22
100
AcDbLine
 10
3.011106590081027
 20
14.90485108579032
 30
0.0
 11
3.049140907606698
 21
14.90485108579032
 31
0.0
  0
LINE
  5
31E
330
2C4
100
AcDbEntity
  8
P-0000
  6
Continuous
 62
    22
100
AcDbLine
 10
3.049140907606698
 20
14.90485108579032
 30
0.0
 11
3.049140907606698
 21
14.79074813322081
 31
0.0
  0
LINE
  5
31F
330
2C4
100
AcDbEntity
  8
P-0000
  6
Continuous
 62
    22
100
AcDbLine
 10
3.049140907606698
 20
14.79074813322081
 30
0.0
 11
2.801917843706206
 21
14.79074813322081
 31
0.0
  0
LINE
  5
320
330
2C4
100
AcDbEntity
  8
P-0000
  6
Continuous
 62
    22
100
AcDbLine
 10
2.801917843706206
 20
14.79074813322081
 30
0.0
 11
2.801917843706206
 21
14.90485108579032
 31
0.0
  0
LINE
  5
321
330
2C4
100
AcDbEntity
  8
P-0000
  6
Continuous
 62
    22
100
AcDbLine
 10
2.801917843706206
 20
14.90485108579032
 30
0.0
 11
2.839952161228239
 21
14.90485108579032
 31
0.0
  0
LINE
  5
322
330
2C4
100
AcDbEntity
  8
P-0000
  6
Continuous
 62
    22
100
AcDbLine
 10
2.839952161228239
 20
14.90485108579032
 30
0.0
 11
2.744866367422247
 21
15.04710051524394
 31
0.0
  0
LINE
  5
323
330
2C4
100
AcDbEntity
  8
P-0000
  6
Continuous
 62
    22
100
AcDbLine
 10
2.744866367422247
 20
15.04710051524394
 30
0.0
 11
2.744866367422247
 21
14.90485108579032
 31
0.0
  0
LINE
  5
324
330
2C4
100
AcDbEntity
  8
P-0000
  6
Continuous
 62
    22
100
AcDbLine
 10
2.744866367422247
 20
14.90485108579032
 30
0.0
 11
2.782900684946099
 21
14.90485108579032
 31
0.0
  0
LINE
  5
325
330
2C4
100
AcDbEntity
  8
P-0000
  6
Continuous
 62
    22
100
AcDbLine
 10
2.782900684946099
 20
14.90485108579032
 30
0.0
 11
2.782900684946099
 21
14.79074813322081
 31
0.0
  0
LINE
  5
326
330
2C4
100
AcDbEntity
  8
P-0000
  6
Continuous
 62
    22
100
AcDbLine
 10
2.782900684946099
 20
14.79074813322081
 30
0.0
 11
2.516660462283681
 21
14.79074813322081
 31
0.0
  0
LINE
  5
327
330
2C4
100
AcDbEntity
  8
P-0000
  6
Continuous
 62
    22
100
AcDbLine
 10
2.516660462283681
 20
14.79074813322081
 30
0.0
 11
2.516660462283681
 21
14.90485108579032
 31
0.0
  0
LINE
  5
328
330
2C4
100
AcDbEntity
  8
P-0000
  6
Continuous
 62
    22
100
AcDbLine
 10
2.516660462283681
 20
14.90485108579032
 30
0.0
 11
2.554694779806624
 21
14.90485108579032
 31
0.0
  0
LINE
  5
329
330
2C4
100
AcDbEntity
  8
P-0000
  6
Continuous
 62
    22
100
AcDbLine
 10
2.554694779806624
 20
14.90485108579032
 30
0.0
 11
2.554694779806624
 21
15.17109130845206
 31
0.0
  0
LINE
  5
32A
330
2C4
100
AcDbEntity
  8
P-0000
  6
Continuous
 62
    22
100
AcDbLine
 10
2.554694779806624
 20
15.17109130845206
 30
0.0
 11
2.516660462283681
 21
15.17109130845206
 31
0.0
  0
LINE
  5
32B
330
2C4
100
AcDbEntity
  8
P-0000
  6
Continuous
 62
    22
100
AcDbLine
 10
2.516660462283681
 20
15.17109130845206
 30
0.0
 11
2.554694779806624
 21
15.17109130845206
 31
0.0
  0
LINE
  5
32C
330
2C4
100
AcDbEntity
  8
P-0000
  6
Continuous
 62
    22
100
AcDbLine
 10
2.497643303520845
 20
15.57045164244387
 30
0.0
 11
2.497643303520845
 21
14.50549075179852
 31
0.0
  0
LINE
  5
32D
330
2C4
100
AcDbEntity
  8
P-0000
  6
Continuous
 62
    22
100
AcDbLine
 10
2.497643303520845
 20
14.50549075179852
 30
0.0
 11
3.562604194168699
 21
14.50549075179852
 31
0.0
  0
LINE
  5
32E
330
2C4
100
AcDbEntity
  8
P-0000
  6
Continuous
 62
    22
100
AcDbLine
 10
3.562604194168699
 20
14.50549075179852
 30
0.0
 11
3.562604194168699
 21
15.57045164244387
 31
0.0
  0
LINE
  5
32F
330
2C4
100
AcDbEntity
  8
P-0000
  6
Continuous
 62
    22
100
AcDbLine
 10
3.562604194168699
 20
15.57045164244387
 30
0.0
 11
2.497643303520845
 21
15.57045164244387
 31
0.0
  0
LINE
  5
330
330
2C4
100
AcDbEntity
  8
P-0000
  6
Continuous
 62
    22
100
AcDbLine
 10
1.927128540673976
 20
15.17109130845206
 30
0.0
 11
1.927128540673976
 21
15.28519426102089
 31
0.0
  0
LINE
  5
331
330
2C4
100
AcDbEntity
  8
P-0000
  6
Continuous
 62
    22
100
AcDbLine
 10
1.927128540673976
 20
15.28519426102089
 30
0.0
 11
2.10643318042824
 21
15.28519426102089
 31
0.0
  0
LINE
  5
332
330
2C4
100
AcDbEntity
  8
P-0000
  6
Continuous
 62
    22
100
AcDbLine
 10
2.10643318042824
 20
15.28519426102089
 30
0.0
 11
2.269437398382279
 21
15.05698835588278
 31
0.0
  0
LINE
  5
333
330
2C4
100
AcDbEntity
  8
P-0000
  6
Continuous
 62
    22
100
AcDbLine
 10
2.269437398382279
 20
15.05698835588278
 30
0.0
 11
2.269437398382279
 21
15.17109130845206
 31
0.0
  0
LINE
  5
334
330
2C4
100
AcDbEntity
  8
P-0000
  6
Continuous
 62
    22
100
AcDbLine
 10
2.269437398382279
 20
15.17109130845206
 30
0.0
 11
2.231403080859337
 21
15.17109130845206
 31
0.0
  0
LINE
  5
335
330
2C4
100
AcDbEntity
  8
P-0000
  6
Continuous
 62
    22
100
AcDbLine
 10
2.231403080859337
 20
15.17109130845206
 30
0.0
 11
2.231403080859337
 21
15.28519426102089
 31
0.0
  0
LINE
  5
336
330
2C4
100
AcDbEntity
  8
P-0000
  6
Continuous
 62
    22
100
AcDbLine
 10
2.231403080859337
 20
15.28519426102089
 30
0.0
 11
2.42157466847496
 21
15.28519426102089
 31
0.0
  0
LINE
  5
337
330
2C4
100
AcDbEntity
  8
P-0000
  6
Continuous
 62
    22
100
AcDbLine
 10
2.42157466847496
 20
15.28519426102089
 30
0.0
 11
2.42157466847496
 21
15.17109130845206
 31
0.0
  0
LINE
  5
338
330
2C4
100
AcDbEntity
  8
P-0000
  6
Continuous
 62
    22
100
AcDbLine
 10
2.42157466847496
 20
15.17109130845206
 30
0.0
 11
2.383540350951108
 21
15.17109130845206
 31
0.0
  0
LINE
  5
339
330
2C4
100
AcDbEntity
  8
P-0000
  6
Continuous
 62
    22
100
AcDbLine
 10
2.383540350951108
 20
15.17109130845206
 30
0.0
 11
2.383540350951108
 21
14.79074813322081
 31
0.0
  0
LINE
  5
33A
330
2C4
100
AcDbEntity
  8
P-0000
  6
Continuous
 62
    22
100
AcDbLine
 10
2.383540350951108
 20
14.79074813322081
 30
0.0
 11
2.269437398382279
 21
14.79074813322081
 31
0.0
  0
LINE
  5
33B
330
2C4
100
AcDbEntity
  8
P-0000
  6
Continuous
 62
    22
100
AcDbLine
 10
2.269437398382279
 20
14.79074813322081
 30
0.0
 11
2.079265810766656
 21
15.05698835588278
 31
0.0
  0
LINE
  5
33C
330
2C4
100
AcDbEntity
  8
P-0000
  6
Continuous
 62
    22
100
AcDbLine
 10
2.079265810766656
 20
15.05698835588278
 30
0.0
 11
2.079265810766656
 21
14.90485108579032
 31
0.0
  0
LINE
  5
33D
330
2C4
100
AcDbEntity
  8
P-0000
  6
Continuous
 62
    22
100
AcDbLine
 10
2.079265810766656
 20
14.90485108579032
 30
0.0
 11
2.117300128289599
 21
14.90485108579032
 31
0.0
  0
LINE
  5
33E
330
2C4
100
AcDbEntity
  8
P-0000
  6
Continuous
 62
    22
100
AcDbLine
 10
2.117300128289599
 20
14.90485108579032
 30
0.0
 11
2.117300128289599
 21
14.79074813322081
 31
0.0
  0
LINE
  5
33F
330
2C4
100
AcDbEntity
  8
P-0000
  6
Continuous
 62
    22
100
AcDbLine
 10
2.117300128289599
 20
14.79074813322081
 30
0.0
 11
1.927128540673976
 21
14.79074813322081
 31
0.0
  0
LINE
  5
340
330
2C4
100
AcDbEntity
  8
P-0000
  6
Continuous
 62
    22
100
AcDbLine
 10
1.927128540673976
 20
14.79074813322081
 30
0.0
 11
1.927128540673976
 21
14.90485108579032
 31
0.0
  0
LINE
  5
341
330
2C4
100
AcDbEntity
  8
P-0000
  6
Continuous
 62
    22
100
AcDbLine
 10
1.927128540673976
 20
14.90485108579032
 30
0.0
 11
1.965162858196919
 21
14.90485108579032
 31
0.0
  0
LINE
  5
342
330
2C4
100
AcDbEntity
  8
P-0000
  6
Continuous
 62
    22
100
AcDbLine
 10
1.965162858196919
 20
14.90485108579032
 30
0.0
 11
1.965162858196919
 21
15.17109130845206
 31
0.0
  0
LINE
  5
343
330
2C4
100
AcDbEntity
  8
P-0000
  6
Continuous
 62
    22
100
AcDbLine
 10
1.965162858196919
 20
15.17109130845206
 30
0.0
 11
1.927128540673976
 21
15.17109130845206
 31
0.0
  0
LINE
  5
344
330
2C4
100
AcDbEntity
  8
P-0000
  6
Continuous
 62
    22
100
AcDbLine
 10
1.927128540673976
 20
15.17109130845206
 30
0.0
 11
1.965162858196919
 21
15.17109130845206
 31
0.0
  0
LINE
  5
345
330
2C4
100
AcDbEntity
  8
P-0000
  6
Continuous
 62
    22
100
AcDbLine
 10
3.068158066367715
 20
14.90485108579032
 30
0.0
 11
3.106192383890657
 21
14.90485108579032
 31
0.0
  0
LINE
  5
346
330
2C4
100
AcDbEntity
  8
P-0000
  6
Continuous
 62
    22
100
AcDbLine
 10
3.106192383890657
 20
14.90485108579032
 30
0.0
 11
3.068158066367715
 21
14.90485108579032
 31
0.0
  0
LINE
  5
347
330
2C4
100
AcDbEntity
  8
P-0000
  6
Continuous
 62
    22
100
AcDbLine
 10
3.068158066367715
 20
14.90485108579032
 30
0.0
 11
3.068158066367715
 21
14.79074813322081
 31
0.0
  0
LINE
  5
348
330
2C4
100
AcDbEntity
  8
P-0000
  6
Continuous
 62
    22
100
AcDbLine
 10
3.068158066367715
 20
14.79074813322081
 30
0.0
 11
3.524569876644846
 21
14.79074813322081
 31
0.0
  0
LINE
  5
349
330
2C4
100
AcDbEntity
  8
P-0000
  6
Continuous
 62
    22
100
AcDbLine
 10
3.524569876644846
 20
14.79074813322081
 30
0.0
 11
3.524569876644846
 21
14.94288540331349
 31
0.0
  0
LINE
  5
34A
330
2C4
100
AcDbEntity
  8
P-0000
  6
Continuous
 62
    22
100
AcDbLine
 10
3.524569876644846
 20
14.94288540331349
 30
0.0
 11
3.410466924075109
 21
14.94288540331349
 31
0.0
  0
LINE
  5
34B
330
2C4
100
AcDbEntity
  8
P-0000
  6
Continuous
 62
    22
100
AcDbLine
 10
3.410466924075109
 20
14.94288540331349
 30
0.0
 11
3.410466924075109
 21
14.90485108579032
 31
0.0
  0
LINE
  5
34C
330
2C4
100
AcDbEntity
  8
P-0000
  6
Continuous
 62
    22
100
AcDbLine
 10
3.410466924075109
 20
14.90485108579032
 30
0.0
 11
3.296363971505371
 21
14.90485108579032
 31
0.0
  0
LINE
  5
34D
330
2C4
100
AcDbEntity
  8
P-0000
  6
Continuous
 62
    22
100
AcDbLine
 10
3.296363971505371
 20
14.90485108579032
 30
0.0
 11
3.296363971505371
 21
14.99233001609373
 31
0.0
  0
LINE
  5
34E
330
2C4
100
AcDbEntity
  8
P-0000
  6
Continuous
 62
    22
100
AcDbLine
 10
3.296363971505371
 20
14.99233001609373
 30
0.0
 11
3.372432606553076
 21
14.99233001609373
 31
0.0
  0
LINE
  5
34F
330
2C4
100
AcDbEntity
  8
P-0000
  6
Continuous
 62
    22
100
AcDbLine
 10
3.372432606553076
 20
14.99233001609373
 30
0.0
 11
3.372432606553076
 21
15.08361237814843
 31
0.0
  0
LINE
  5
350
330
2C4
100
AcDbEntity
  8
P-0000
  6
Continuous
 62
    22
100
AcDbLine
 10
3.372432606553076
 20
15.08361237814843
 30
0.0
 11
3.296363971505371
 21
15.08361237814843
 31
0.0
  0
LINE
  5
351
330
2C4
100
AcDbEntity
  8
P-0000
  6
Continuous
 62
    22
100
AcDbLine
 10
3.296363971505371
 20
15.08361237814843
 30
0.0
 11
3.296363971505371
 21
15.17109130845206
 31
0.0
  0
LINE
  5
352
330
2C4
100
AcDbEntity
  8
P-0000
  6
Continuous
 62
    22
100
AcDbLine
 10
3.296363971505371
 20
15.17109130845206
 30
0.0
 11
3.410466924075109
 21
15.17109130845206
 31
0.0
  0
LINE
  5
353
330
2C4
100
AcDbEntity
  8
P-0000
  6
Continuous
 62
    22
100
AcDbLine
 10
3.410466924075109
 20
15.17109130845206
 30
0.0
 11
3.410466924075109
 21
15.13305699092866
 31
0.0
  0
LINE
  5
354
330
2C4
100
AcDbEntity
  8
P-0000
  6
Continuous
 62
    22
100
AcDbLine
 10
3.410466924075109
 20
15.13305699092866
 30
0.0
 11
3.524569876644846
 21
15.13305699092866
 31
0.0
  0
LINE
  5
355
330
2C4
100
AcDbEntity
  8
P-0000
  6
Continuous
 62
    22
100
AcDbLine
 10
3.524569876644846
 20
15.13305699092866
 30
0.0
 11
3.524569876644846
 21
15.28519426102089
 31
0.0
  0
LINE
  5
356
330
2C4
100
AcDbEntity
  8
P-0000
  6
Continuous
 62
    22
100
AcDbLine
 10
3.524569876644846
 20
15.28519426102089
 30
0.0
 11
3.068158066367715
 21
15.28519426102089
 31
0.0
  0
LINE
  5
357
330
2C4
100
AcDbEntity
  8
P-0000
  6
Continuous
 62
    22
100
AcDbLine
 10
3.068158066367715
 20
15.28519426102089
 30
0.0
 11
3.068158066367715
 21
15.17109130845206
 31
0.0
  0
LINE
  5
358
330
2C4
100
AcDbEntity
  8
P-0000
  6
Continuous
 62
    22
100
AcDbLine
 10
3.068158066367715
 20
15.17109130845206
 30
0.0
 11
3.106192383890657
 21
15.17109130845206
 31
0.0
  0
LINE
  5
359
330
2C4
100
AcDbEntity
  8
P-0000
  6
Continuous
 62
    22
100
AcDbLine
 10
3.106192383890657
 20
15.17109130845206
 30
0.0
 11
3.106192383890657
 21
14.90485108579032
 31
0.0
  0
MTEXT
  5
35A
330
2C4
100
AcDbEntity
  8
P-0000
  6
Continuous
 62
    22
100
AcDbMText
 10
4.873347565255272
 20
14.38639936136219
 30
0.0
 40
0.2712093050737119
 41
4.001057434410612
 46
0.0
 71
     7
 72
     5
  1
Questions?  Call Franke Customer Service USA 1-800-626-5771
  7
Franke
 73
     2
 44
0.9035999999999999
1001
TOP
1070
    22
  0
MTEXT
  5
35B
330
2C4
100
AcDbEntity
  8
P-0000
  6
Continuous
 62
    22
100
AcDbMText
 10
3.009874656208637
 20
0.2180773225818058
 30
0.0
 40
0.4017915630721659
 41
5.92749249542313
 46
0.0
 71
     7
 72
     5
  1
TEM CPX120
  7
Franke
 73
     2
 44
0.9035999999999999
1001
TOP
1070
    22
  0
MTEXT
  5
35C
330
2C4
100
AcDbEntity
  8
0
100
AcDbMText
 10
0.1910282310241484
 20
10.97962427234661
 30
0.0
 40
0.06368544
 41
599.0513751917615
 46
0.0
 71
     1
 72
     5
  3
{\C1;\P\P\H2x;\C22;For best results, Franke recommends this unit be mounted by a professional installer.  This sink is specifically designed to be undermounted\Pin a solid surface countertop only.\P\PDo not install a damaged sink. Inspect carefully.\
  3
P\PNOTE: The template included (or dxf file downloaded from website) is only a guide. The actual sink and accessories should ALWAYS be\Ppresent to ensure a perfect cut. \P\PFRANKE  IS NOT RESPONSIBLE FOR AN IMPROPERLY CUT COUNTERTOP OR IMPROPER INSTA
  3
LLATION\P\P\P1. Create the cut-out in the desired location of the mounting surface using this template (or the dxf file downloaded from our website).\P Make sure to compare the actual sink with the template being used to ensure a perfect fit.  The si
  3
ze of the cut-out should be exact as\P this sink uses coordinating accessories which fit precisely with the cut out.  Also be aware of the  spacing requirements of any other\P products that will be mounted to the countertop next to the sink such as f
  3
aucets or soap dispensers.\P\P\P2. It will be the responsibility of the countertop supplier/installer to decide the ideal anchoring method based on the application and \Pcountertop material being used. Determine best placement of the clip brackets pr
  3
ovided, ideally they should be evenly spaced around\P the sink ledge on all sides.  Pre-drill holes and install anchors.  Mounting screws and/or other hardware associated with anchoring \Pnot included.  Attach clip brackets loosely to the countertop 
  3
using selected anchor.\P \P\P3. Apply a bead of silicone evenly along the bowl rim and/or along the underside of countertop.\P\P\P4. Position and align sink evenly over the opening of the cut out. Press sink into silicone seal and partially tighten t
  3
he clip brackets\Pagainst the sink so it stays in place.\P\P\P5. Check alignment one final time to ensure the sink opening is evenly aligned with the countertop cut out as outlined in the image below.\PMake adjustments as necessary to obtain perfect 
  3
alignment.  \P\P\P6. Once satisfactory alignment is achieved, fully tighten clip brackets against the rim of the sink and remove excess silicone.  \PHINT: After silicone cures, wipe inside edge with denatured alcohol. This will smooth out any rough a
  1
reas.}
  7
Franke
 73
     1
 44
1.0
1001
ACAD
1000
ACAD_MTEXT_COLUMN_INFO_BEGIN
1070
    75
1070
     2
1070
    79
1070
     0
1070
    76
1070
     1
1070
    78
1070
     0
1070
    48
1040
599.0513751917615
1070
    49
1040
1.0
1070
    50
1070
     1
1040
0.0
1000
ACAD_MTEXT_COLUMN_INFO_END
  0
OLE2FRAME
  5
35D
330
2C4
100
AcDbEntity
  8
TEMPLATE
 62
     0
100
AcDbOle2Frame
 70
     2
  1
OLE
1001
ACAD
1000
OLEBEGIN
1070
    70
1070
     1
1070
    71
1070
     1
1070
    40
1040
0.0
1070
    41
1040
8.460457893127795
1070
    42
1040
1.691603693539327
1070
    72
1070
     0
1070
     3
1000

1070
    90
1071
        0
1070
    43
1040
0.0
1070
     4
1000

1070
    91
1071
        0
1070
    44
1040
0.0
1000
OLEEND
  0
ENDBLK
  5
35F
330
2C4
100
AcDbEntity
  8
0
100
AcDbBlockEnd
  0
BLOCK
  5
D2F
330
D2D
100
AcDbEntity
  8
0
100
AcDbBlockBegin
  2
A$C0E7A597D
 70
     0
 10
0.0
 20
0.0
 30
0.0
  3
A$C0E7A597D
  1

  0
LINE
  5
D2E
330
D2D
100
AcDbEntity
  8
0
100
AcDbLine
 10
0.0
 20
0.0
 30
0.0
 11
15.5
 21
0.0
 31
0.0
  0
ENDBLK
  5
D30
330
D2D
100
AcDbEntity
  8
0
100
AcDbBlockEnd
  0
ENDSEC
  0
SECTION
  2
ENTITIES
  0
LINE
  5
D2B
330
77
100
AcDbEntity
  8
0
100
AcDbLine
 10
270.3298489468486
 20
1905.04994591045
 30
0.0
 11
270.3298489468486
 21
1887.549945910449
 31
0.0
  0
LINE
  5
D32
330
77
100
AcDbEntity
  8
0
100
AcDbLine
 10
271.2048489468486
 20
1905.924945910449
 30
0.0
 11
284.9548489468487
 21
1905.924945910449
 31
0.0
  0
LINE
  5
D3E
330
77
100
AcDbEntity
  8
0
100
AcDbLine
 10
285.8298489468486
 20
1905.04994591045
 30
0.0
 11
285.8298489468486
 21
1887.549945910449
 31
0.0
  0
LINE
  5
D48
330
77
100
AcDbEntity
  8
0
100
AcDbLine
 10
271.2048489282843
 20
1886.674945890938
 30
0.0
 11
284.9548489282843
 21
1886.674945890938
 31
0.0
  0
ARC
  5
D4B
330
77
100
AcDbEntity
  8
0
100
AcDbCircle
 10
271.2048489468486
 20
1905.04994591045
 30
0.0
 40
0.875
100
AcDbArc
 50
89.99999999999998
 51
180.0
  0
ARC
  5
D4C
330
77
100
AcDbEntity
  8
0
100
AcDbCircle
 10
284.9548489468487
 20
1905.04994591045
 30
0.0
 40
0.875
100
AcDbArc
 50
0.0
 51
90.0
  0
ARC
  5
D4D
330
77
100
AcDbEntity
  8
0
100
AcDbCircle
 10
284.9548489273368
 20
1887.549945910449
 30
0.0
 40
0.8750000195118445
100
AcDbArc
 50
270.0000000620446
 51
0.0
  0
ARC
  5
D4E
330
77
100
AcDbEntity
  8
0
100
AcDbCircle
 10
271.2048489282842
 20
1887.549945872373
 30
0.0
 40
0.8749999814356222
100
AcDbArc
 50
179.9999975067422
 51
270.0000000000037
  0
LINE
  5
D5B
330
77
100
AcDbEntity
  8
0
100
AcDbLine
 10
270.8923489468486
 20
1902.51869591045
 30
0.0
 11
270.8923489468487
 21
1888.11244591045
 31
0.0
  0
LINE
  5
D5C
330
77
100
AcDbEntity
  8
0
100
AcDbLine
 10
271.7673489468486
 20
1903.39369591045
 30
0.0
 11
284.3923489468486
 21
1903.39369591045
 31
0.0
  0
LINE
  5
D5D
330
77
100
AcDbEntity
  8
0
100
AcDbLine
 10
285.2673489468486
 20
1902.51869591045
 30
0.0
 11
285.2673489468486
 21
1888.11244591045
 31
0.0
  0
LINE
  5
D5E
330
77
100
AcDbEntity
  8
0
100
AcDbLine
 10
271.7673489282843
 20
1887.237445890938
 30
0.0
 11
284.3923489282843
 21
1887.237445890938
 31
0.0
  0
ARC
  5
D79
330
77
100
AcDbEntity
  8
0
100
AcDbCircle
 10
271.7673489468486
 20
1902.51869591045
 30
0.0
 40
0.875
100
AcDbArc
 50
89.99999999999998
 51
180.0
  0
ARC
  5
D7A
330
77
100
AcDbEntity
  8
0
100
AcDbCircle
 10
271.7673489663605
 20
1888.11244591045
 30
0.0
 40
0.8750000195118445
100
AcDbArc
 50
179.9999999999999
 51
269.9999975067387
  0
ARC
  5
D7B
330
77
100
AcDbEntity
  8
0
100
AcDbCircle
 10
284.3923489282843
 20
1888.112445909502
 30
0.0
 40
0.8750000185643784
100
AcDbArc
 50
269.9999999999963
 51
0.0000000620409174
  0
ARC
  5
D7C
330
77
100
AcDbEntity
  8
0
100
AcDbCircle
 10
284.3923489468486
 20
1902.51869591045
 30
0.0
 40
0.875
100
AcDbArc
 50
0.0
 51
90.00000000000371
  0
TEXT
  5
D7E
330
77
100
AcDbEntity
  8
0
100
AcDbText
 10
273.2575235561264
 20
1900.340241419028
 30
0.0
 40
1.196541823576461
  1
Cut Template
  7
Text Style20
100
AcDbText
  0
CIRCLE
  5
D7F
330
77
100
AcDbEntity
  8
0
100
AcDbCircle
 10
278.0798366981585
 20
1904.862494601311
 30
0.0
 40
0.75
  0
LWPOLYLINE
  5
DBD
330
77
100
AcDbEntity
  8
0
100
AcDbPolyline
 90
        2
 70
     0
 10
277.5030035735918
 20
1887.512544920567
 40
0.15042392064
 41
0.02507065344
 10
277.7689180094347
 20
1887.246630484725
 40
0.02507065344
 41
0.02507065344
  0
MTEXT
  5
DBE
330
77
100
AcDbEntity
  8
0
100
AcDbMText
 10
277.5171712948056
 20
1887.883703196579
 30
0.0
 40
0.27
 41
0.0
 46
0.0
 71
     9
 72
     1
  1
{\fArial|b0|i0|c0|p34;\H0.9259x;Use this line for UNDER MOUNT CUT}
 73
     1
 44
1.0
  0
LWPOLYLINE
  5
DBF
330
77
100
AcDbEntity
  8
0
100
AcDbPolyline
 90
        2
 70
     0
 43
0.04064
 10
277.1461472262168
 20
1887.869401267942
 10
277.5053574710597
 20
1887.510191023099
  0
MTEXT
  5
DCA
330
77
100
AcDbEntity
  8
0
100
AcDbMText
 10
283.4263604203642
 20
1902.999514500868
 30
0.0
 40
0.27
 41
0.0
 46
0.0
 71
     9
 72
     1
  1
{\fArial|b0|i0|c0|p34;\H0.9259x;Use this faucet hole for UNDER MOUNT }
 73
     1
 44
1.0
  0
LWPOLYLINE
  5
DD2
330
77
100
AcDbEntity
  8
0
100
AcDbPolyline
 90
        2
 70
     0
 10
279.1491437914808
 20
1903.839522606095
 40
0.15042392064
 41
0.02507065344
 10
278.6884965121244
 20
1904.211564001131
 40
0.02507065344
 41
0.02507065344
  0
LWPOLYLINE
  5
DD3
330
77
100
AcDbEntity
  8
0
100
AcDbPolyline
 90
        2
 70
     0
 43
0.04064
 10
279.5018157872422
 20
1903.534956671396
 10
279.1514976889487
 20
1903.837168708627
  0
MTEXT
  5
DE4
330
77
100
AcDbEntity
  8
0
100
AcDbMText
 10
273.6621669875964
 20
1894.501484968903
 30
0.0
 40
0.3
 41
15.78251921622287
 46
0.0
 71
     1
 72
     5
  1
{\fArial|b1|i0|c0|p34;Use inside line for under mount cut:\fArial|b0|i0|c0|p34;\PSink rim is flush with the countertop opening.}
 73
     1
 44
1.0
  0
MTEXT
  5
DE5
330
77
100
AcDbEntity
  8
0
100
AcDbMText
 10
273.6432218737244
 20
1892.992880778995
 30
0.0
 40
0.3
 41
15.78251921622287
 46
0.0
 71
     1
 72
     5
  1
{\fArial|b1|i0|c0|p34;Use outside line for drop in mount cut:}
 73
     1
 44
1.0
  0
MTEXT
  5
DE6
330
77
100
AcDbEntity
  8
0
100
AcDbMText
 10
273.5537573728193
 20
1891.353900805255
 30
0.0
 40
0.3
 41
8.265513340348116
 46
0.3532178848914857
 71
     1
 72
     5
  1
{\fArial|b0|i0|c0|p34;Please check actual template against physical sink unit for most accurate cut!}
 73
     1
 44
1.0
  0
LWPOLYLINE
  5
DEE
330
77
100
AcDbEntity
  8
0
100
AcDbPolyline
 90
        2
 70
     0
 10
276.9245952446012
 20
1905.601680269341
 40
0.15042392064
 41
0.02507065344
 10
277.0642109427742
 20
1905.872975031743
 40
0.02507065344
 41
0.02507065344
  0
MTEXT
  5
DEF
330
77
100
AcDbEntity
  8
0
100
AcDbMText
 10
276.8574243964878
 20
1904.761850136664
 30
0.0
 40
0.27
 41
0.0
 46
0.0
 71
     9
 72
     1
  1
{\fArial|b0|i0|c0|p34;\H0.9259x;Use this line for TOP MOUNT CUT}
 73
     1
 44
1.0
  0
LWPOLYLINE
  5
DF0
330
77
100
AcDbEntity
  8
0
100
AcDbPolyline
 90
        2
 70
     0
 43
0.04064
 10
276.7423193951944
 20
1905.190862596112
 10
276.9245952446012
 20
1905.601680269341
  0
ENDSEC
  0
SECTION
  2
OBJECTS
  0
DICTIONARY
  5
C
330
0
100
AcDbDictionary
281
     1
  3
ACAD_CIP_PREVIOUS_PRODUCT_INFO
350
2B3
  3
ACAD_COLOR
350
6E
  3
ACAD_DETAILVIEWSTYLE
350
2AC
  3
ACAD_GROUP
350
D
  3
ACAD_LAYOUT
350
6D
  3
ACAD_MATERIAL
350
10
  3
ACAD_MLEADERSTYLE
350
71
  3
ACAD_MLINESTYLE
350
6A
  3
ACAD_PLOTSETTINGS
350
6C
  3
ACAD_PLOTSTYLENAME
350
E
  3
ACAD_SCALELIST
350
3D
  3
ACAD_SECTIONVIEWSTYLE
350
2AA
  3
ACAD_TABLESTYLE
350
6F
  3
ACAD_VISUALSTYLE
350
29
  3
ACDB_RECOMPOSE_DATA
350
E61
  3
AcDbVariableDictionary
350
195
  0
DICTIONARY
  5
160
330
8
100
AcDbDictionary
280
     1
281
     1
  0
DICTIONARY
  5
209
330
2
100
AcDbDictionary
280
     1
281
     1
  3
ACAD_LAYERSTATES
360
20A
  0
DICTIONARY
  5
2B7
330
2B6
100
AcDbDictionary
280
     1
281
     1
  0
DICTIONARY
  5
2B9
330
2B8
100
AcDbDictionary
280
     1
281
     1
  0
DICTIONARY
  5
2BB
330
2BA
100
AcDbDictionary
280
     1
281
     1
  0
DICTIONARY
  5
DC1
330
DC0
100
AcDbDictionary
280
     1
281
     1
  0
DICTIONARY
  5
134
330
10F
100
AcDbDictionary
280
     1
281
     1
  3
ACAD_MLATT
360
E50
  3
ACAD_XREC_ROUNDTRIP
360
E4F
  0
DICTIONARY
  5
137
330
114
100
AcDbDictionary
280
     1
281
     1
  3
ACAD_MLATT
360
E52
  3
ACAD_XREC_ROUNDTRIP
360
E51
  0
DICTIONARY
  5
13A
330
116
100
AcDbDictionary
280
     1
281
     1
  3
ACAD_MLATT
360
E54
  3
ACAD_XREC_ROUNDTRIP
360
E53
  0
DICTIONARY
  5
13D
330
117
100
AcDbDictionary
280
     1
281
     1
  3
ACAD_MLATT
360
E56
  3
ACAD_XREC_ROUNDTRIP
360
E55
  0
DICTIONARY
  5
140
330
118
100
AcDbDictionary
280
     1
281
     1
  3
ACAD_MLATT
360
E58
  3
ACAD_XREC_ROUNDTRIP
360
E57
  0
DICTIONARY
  5
143
330
119
100
AcDbDictionary
280
     1
281
     1
  3
ACAD_MLATT
360
E5A
  3
ACAD_XREC_ROUNDTRIP
360
E59
  0
DICTIONARY
  5
146
330
11A
100
AcDbDictionary
280
     1
281
     1
  3
ACAD_MLATT
360
E5C
  3
ACAD_XREC_ROUNDTRIP
360
E5B
  0
XRECORD
  5
2B3
102
{ACAD_REACTORS
330
C
102
}
330
C
100
AcDbXrecord
280
     1
300
ACDLT
300
2014
300
ACDLT_F_S
  0
DICTIONARY
  5
6E
102
{ACAD_REACTORS
330
C
102
}
330
C
100
AcDbDictionary
281
     1
  0
DICTIONARY
  5
2AC
102
{ACAD_REACTORS
330
C
102
}
330
C
100
AcDbDictionary
281
     1
  3
Imperial24
350
2C3
  3
Metric50
350
2AD
  0
DICTIONARY
  5
D
102
{ACAD_REACTORS
330
C
102
}
330
C
100
AcDbDictionary
281
     1
  0
DICTIONARY
  5
6D
102
{ACAD_REACTORS
330
C
102
}
330
C
100
AcDbDictionary
281
     1
  3
Layout1
350
76
  3
Layout2
350
7E
  3
Model
350
7A
  0
DICTIONARY
  5
10
102
{ACAD_REACTORS
330
C
102
}
330
C
100
AcDbDictionary
281
     1
  3
ByBlock
350
19
  3
ByLayer
350
11
  3
Global
350
21
  0
DICTIONARY
  5
71
102
{ACAD_REACTORS
330
C
102
}
330
C
100
AcDbDictionary
281
     1
  3
Standard
350
72
  0
DICTIONARY
  5
6A
102
{ACAD_REACTORS
330
C
102
}
330
C
100
AcDbDictionary
281
     1
  3
Standard
350
6B
  0
DICTIONARY
  5
6C
102
{ACAD_REACTORS
330
C
102
}
330
C
100
AcDbDictionary
281
     1
  0
ACDBDICTIONARYWDFLT
  5
E
102
{ACAD_REACTORS
330
C
102
}
330
C
100
AcDbDictionary
281
     1
  3
Normal
350
F
100
AcDbDictionaryWithDefault
340
F
  0
DICTIONARY
  5
3D
102
{ACAD_REACTORS
330
C
102
}
330
C
100
AcDbDictionary
281
     1
  3
A0
350
3E
  3
A1
350
3F
  3
A2
350
40
  3
A3
350
41
  3
A4
350
42
  3
A5
350
43
  3
A6
350
44
  3
A7
350
45
  3
A8
350
46
  3
A9
350
47
  3
B0
350
48
  3
B1
350
49
  3
B2
350
4A
  3
B3
350
4B
  3
B4
350
4C
  3
B5
350
4D
  3
B6
350
4E
  3
B7
350
4F
  3
B8
350
50
  3
B9
350
51
  3
C0
350
52
  3
C1
350
53
  3
C2
350
54
  3
C3
350
55
  3
C4
350
56
  3
C5
350
57
  3
C6
350
58
  3
C7
350
59
  3
C8
350
5A
  3
C9
350
5B
  3
D0
350
5C
  3
D1
350
5D
  3
D2
350
5E
  0
DICTIONARY
  5
2AA
102
{ACAD_REACTORS
330
C
102
}
330
C
100
AcDbDictionary
281
     1
  3
Imperial24
350
2C2
  3
Metric50
350
2AB
  0
DICTIONARY
  5
6F
102
{ACAD_REACTORS
330
C
102
}
330
C
100
AcDbDictionary
281
     1
  3
Standard
350
70
  0
DICTIONARY
  5
29
102
{ACAD_REACTORS
330
C
102
}
330
C
100
AcDbDictionary
281
     1
  3
2dWireframe
350
2F
  3
3D Hidden
350
31
  3
3dWireframe
350
30
  3
Basic
350
2E
  3
Brighten
350
35
  3
ColorChange
350
39
  3
Conceptual
350
32
  3
Dim
350
34
  3
EdgeColorOff
350
3C
  3
Facepattern
350
38
  3
Flat
350
2A
  3
FlatWithEdges
350
2B
  3
Gouraud
350
2C
  3
GouraudWithEdges
350
2D
  3
Hidden
350
2A4
  3
JitterOff
350
3A
  3
Linepattern
350
37
  3
OverhangOff
350
3B
  3
Realistic
350
33
  3
Shaded
350
2A9
  3
Shaded with edges
350
2A8
  3
Shades of Gray
350
2A5
  3
Sketchy
350
2A6
  3
Thicken
350
36
  3
Wireframe
350
2A3
  3
X-Ray
350
2A7
  0
XRECORD
  5
E61
102
{ACAD_REACTORS
330
C
102
}
330
C
100
AcDbXrecord
280
     1
 90
        1
330
70
330
10F
330
114
330
116
330
117
330
118
330
119
330
11A
330
2AB
330
2AD
330
2C2
330
2C3
330
35C
  0
DICTIONARY
  5
195
102
{ACAD_REACTORS
330
C
102
}
330
C
100
AcDbDictionary
281
     1
  3
CANNOSCALE
350
199
  3
CMLEADERSTYLE
350
197
  3
CTABLESTYLE
350
196
  3
CVIEWDETAILSTYLE
350
A11
  3
CVIEWSECTIONSTYLE
350
A12
  3
DIMASSOC
350
1A0
  3
EXPORTMODELSPACE
350
CEB
  3
HIDETEXT
350
19F
  3
INDEXCTL
350
19E
  3
LAYEREVAL
350
19B
  3
LAYERNOTIFY
350
19C
  3
LIGHTINGUNITS
350
19A
  3
MSLTSCALE
350
198
  3
SORTENTS
350
19D
  0
DICTIONARY
  5
20A
102
{ACAD_REACTORS
330
209
102
}
330
209
100
AcDbDictionary
281
     1
  0
XRECORD
  5
E50
102
{ACAD_REACTORS
330
134
102
}
330
134
100
AcDbXrecord
280
     1
 70
     4
 70
     0
 70
     0
 40
1.0
  2
Title
  1
Embedded Object
 10
179.445841330296
 20
113.0983016652057
 30
0.0
 40
5.0
 41
87.61016571583608
 46
0.0
 71
     4
 72
     5
  1
PCX 110 7 SI
  7
Text Style20
 73
     1
 44
1.0
  0
XRECORD
  5
E4F
102
{ACAD_REACTORS
330
134
102
}
330
134
100
AcDbXrecord
280
     1
102
ACAD_MATT_HEIGHT
140
5.0
  0
XRECORD
  5
E52
102
{ACAD_REACTORS
330
137
102
}
330
137
100
AcDbXrecord
280
     1
 70
     4
 70
     0
 70
     0
 40
1.0
  2
Auxiliary_Remark1
  1
Embedded Object
 10
179.445841330296
 20
105.8483016652057
 30
0.0
 40
3.499999940395355
 41
87.20572704106812
 46
0.0
 71
     4
 72
     5
  1
installing document (BUNA)
  7
Text Style9
 73
     1
 44
1.0
  0
XRECORD
  5
E51
102
{ACAD_REACTORS
330
137
102
}
330
137
100
AcDbXrecord
280
     1
102
ACAD_MATT_HEIGHT
140
3.499999940395355
  0
XRECORD
  5
E54
102
{ACAD_REACTORS
330
13A
102
}
330
13A
100
AcDbXrecord
280
     1
 70
     4
 70
     0
 70
     0
 40
1.0
  2
Revision_Index_1
  1
Embedded Object
 10
150.195841330296
 20
116.2233016652057
 30
0.0
 40
2.000000029802321
 41
25.49028614085662
 46
0.0
 71
     5
 72
     5
  1

  7
Text Style40
 73
     1
 44
1.0
  0
XRECORD
  5
E53
102
{ACAD_REACTORS
330
13A
102
}
330
13A
100
AcDbXrecord
280
     1
102
ACAD_MATT_HEIGHT
140
2.000000029802321
  0
XRECORD
  5
E56
102
{ACAD_REACTORS
330
13D
102
}
330
13D
100
AcDbXrecord
280
     1
 70
     4
 70
     0
 70
     0
 40
1.0
  2
Document_Number
  1
Embedded Object
 10
110.045841330296
 20
116.2233016652057
 30
0.0
 40
2.000000029802321
 41
37.86321438900613
 46
0.0
 71
     4
 72
     5
  1
0056-195608
  7
Text Style40
 73
     1
 44
1.0
  0
XRECORD
  5
E55
102
{ACAD_REACTORS
330
13D
102
}
330
13D
100
AcDbXrecord
280
     1
102
ACAD_MATT_HEIGHT
140
2.000000029802321
  0
XRECORD
  5
E58
102
{ACAD_REACTORS
330
140
102
}
330
140
100
AcDbXrecord
280
     1
 70
     4
 70
     0
 70
     0
 40
1.0
  2
Drawn_Date
  1
Embedded Object
 10
110.045841330296
 20
111.9733016652057
 30
0.0
 40
2.000000029802321
 41
21.50025379545036
 46
0.0
 71
     4
 72
     5
  1
21.06.2011
  7
Text Style40
 73
     1
 44
1.0
  0
XRECORD
  5
E57
102
{ACAD_REACTORS
330
140
102
}
330
140
100
AcDbXrecord
280
     1
102
ACAD_MATT_HEIGHT
140
2.000000029802321
  0
XRECORD
  5
E5A
102
{ACAD_REACTORS
330
143
102
}
330
143
100
AcDbXrecord
280
     1
 70
     4
 70
     0
 70
     0
 40
1.0
  2
Sheet_number
  1
Embedded Object
 10
276.695841330296
 20
108.3483016652058
 30
0.0
 40
5.0
 41
52.1807039614524
 46
0.0
 71
     5
 72
     5
  1
\W0.9000;4 
  7
Text__5.0mm
 73
     1
 44
1.0
  0
XRECORD
  5
E59
102
{ACAD_REACTORS
330
143
102
}
330
143
100
AcDbXrecord
280
     1
102
ACAD_MATT_HEIGHT
140
5.0
  0
XRECORD
  5
E5C
102
{ACAD_REACTORS
330
146
102
}
330
146
100
AcDbXrecord
280
     1
 70
     4
 70
     0
 70
     0
 40
1.0
  2
Number_of_sheets
  1
Embedded Object
 10
284.1958413302961
 20
108.3483016652058
 30
0.0
 40
5.0
 41
57.07706724479784
 46
0.0
 71
     5
 72
     5
  1
\W0.9000;6 
  7
Text__5.0mm
 73
     1
 44
1.0
  0
XRECORD
  5
E5B
102
{ACAD_REACTORS
330
146
102
}
330
146
100
AcDbXrecord
280
     1
102
ACAD_MATT_HEIGHT
140
5.0
  0
ACDBDETAILVIEWSTYLE
  5
2C3
102
{ACAD_XDICTIONARY
360
A0E
102
}
102
{ACAD_REACTORS
330
2AC
102
}
330
2AC
100
AcDbModelDocViewStyle
 70
     0
  3
Imperial24
290
     0
100
AcDbDetailViewStyle
 70
     0
 71
     0
 90
        3
 71
     1
340
60
 62
   256
 40
0.24
340
0
 62
   256
 40
0.24
300

 40
0.36
280
     3
 71
     2
340
68
 90
       25
 62
   256
 71
     3
340
60
 62
   256
 40
0.24
 90
        1
 40
0.75
 90
        1
300
%<\AcVar ViewType \f "%tc1">% %<\AcVar ViewDetailId>%\PSCALE %<\AcVar ViewScale \f "%sn">%
 71
     4
340
68
 90
       25
 62
   256
340
68
 90
       25
 62
   256
280
     0
  0
ACDBDETAILVIEWSTYLE
  5
2AD
102
{ACAD_XDICTIONARY
360
A0A
102
}
102
{ACAD_REACTORS
330
2AC
102
}
330
2AC
100
AcDbModelDocViewStyle
 70
     0
  3
Metric50
290
     0
100
AcDbDetailViewStyle
 70
     0
 71
     0
 90
        3
 71
     1
340
60
 62
   256
 40
5.0
340
0
 62
   256
 40
5.0
300

 40
0.0
280
     1
 71
     2
340
68
 90
       25
 62
   256
 71
     3
340
60
 62
   256
 40
5.0
 90
        0
 40
15.0
 90
        1
300
%<\AcVar ViewDetailId>% (%<\AcVar ViewScale \f "%sn">%)
 71
     4
340
68
 90
       25
 62
   256
340
68
 90
       25
 62
   256
280
     0
  0
LAYOUT
  5
76
102
{ACAD_REACTORS
330
6D
102
}
330
6D
100
AcDbPlotSettings
  1

  2

  4

  6

 40
0.0
 41
0.0
 42
0.0
 43
0.0
 44
0.0
 45
0.0
 46
0.0
 47
0.0
 48
0.0
 49
0.0
140
0.0
141
0.0
142
1.0
143
1.0
 70
   688
 72
     0
 73
     0
 74
     5
  7

 75
    16
147
1.0
 76
     0
 77
     2
 78
   300
148
0.0
149
0.0
100
AcDbLayout
  1
Layout1
 70
     1
 71
     1
 10
0.0
 20
0.0
 11
2100.0
 21
2970.0
 12
0.0
 22
0.0
 32
0.0
 14
0.0
 24
0.0
 34
0.0
 15
2100.0
 25
2970.0
 35
0.0
146
0.0
 13
0.0
 23
0.0
 33
0.0
 16
1.0
 26
0.0
 36
0.0
 17
0.0
 27
1.0
 37
0.0
 76
     0
330
73
  0
LAYOUT
  5
7E
102
{ACAD_REACTORS
330
6D
102
}
330
6D
100
AcDbPlotSettings
  1

  2

  4

  6

 40
0.0
 41
0.0
 42
0.0
 43
0.0
 44
0.0
 45
0.0
 46
0.0
 47
0.0
 48
0.0
 49
0.0
140
0.0
141
0.0
142
1.0
143
1.0
 70
   688
 72
     0
 73
     0
 74
     5
  7

 75
    16
147
1.0
 76
     0
 77
     2
 78
   300
148
0.0
149
0.0
100
AcDbLayout
  1
Layout2
 70
     1
 71
     2
 10
0.0
 20
0.0
 11
12.0
 21
9.0
 12
0.0
 22
0.0
 32
0.0
 14
0.0
 24
0.0
 34
0.0
 15
0.0
 25
0.0
 35
0.0
146
0.0
 13
0.0
 23
0.0
 33
0.0
 16
1.0
 26
0.0
 36
0.0
 17
0.0
 27
1.0
 37
0.0
 76
     0
330
7B
  0
LAYOUT
  5
7A
102
{ACAD_XDICTIONARY
360
20F
102
}
102
{ACAD_REACTORS
330
6D
102
}
330
6D
100
AcDbPlotSettings
  1

  2
PDFCreator
  4
A4 Small
  6

 40
10.65741634368896
 41
11.41940307617187
 42
11.03842163085937
 43
11.71575927734375
 44
209.8886566162109
 45
297.0530090332031
 46
0.0
 47
0.0
 48
0.0
 49
0.0
140
0.0
141
0.0
142
1.0
143
0.1085801582022406
 70
 11952
 72
     1
 73
     1
 74
     0
  7

 75
     0
147
9.209785807618803
 76
     0
 77
     2
 78
   300
148
-265.7452433665339
149
-1887.781510235805
100
AcDbLayout
  1
Model
 70
     1
 71
     0
 10
0.0
 20
0.0
 11
12.0
 21
9.0
 12
0.0
 22
0.0
 32
0.0
 14
0.0
 24
0.0
 34
0.0
 15
0.0
 25
0.0
 35
0.0
146
0.0
 13
0.0
 23
0.0
 33
0.0
 16
1.0
 26
0.0
 36
0.0
 17
0.0
 27
1.0
 37
0.0
 76
     0
330
77
331
62
1001
ACAD_PSEXT
1000
PDFCreator
1000
PDFCreator
1000
PDFCreator:
1000
eDoc Printer
1070
     0
  0
MATERIAL
  5
19
102
{ACAD_XDICTIONARY
360
1A
102
}
102
{ACAD_REACTORS
330
10
102
}
330
10
100
AcDbMaterial
  1
ByBlock
 72
     0
 43
0.0208333333333333
 43
0.0
 43
0.0
 43
0.0
 43
0.0
 43
0.0208333333333333
 43
0.0
 43
0.0
 43
0.0
 43
0.0
 43
1.0
 43
0.0
 43
0.0
 43
0.0
 43
0.0
 43
1.0
 77
     0
 47
0.0208333333333333
 47
0.0
 47
0.0
 47
0.0
 47
0.0
 47
0.0208333333333333
 47
0.0
 47
0.0
 47
0.0
 47
0.0
 47
1.0
 47
0.0
 47
0.0
 47
0.0
 47
0.0
 47
1.0
171
     0
 49
0.0208333333333333
 49
0.0
 49
0.0
 49
0.0
 49
0.0
 49
0.0208333333333333
 49
0.0
 49
0.0
 49
0.0
 49
0.0
 49
1.0
 49
0.0
 49
0.0
 49
0.0
 49
0.0
 49
1.0
175
     0
142
0.0208333333333333
142
0.0
142
0.0
142
0.0
142
0.0
142
0.0208333333333333
142
0.0
142
0.0
142
0.0
142
0.0
142
1.0
142
0.0
142
0.0
142
0.0
142
0.0
142
1.0
179
     0
144
0.0208333333333333
144
0.0
144
0.0
144
0.0
144
0.0
144
0.0208333333333333
144
0.0
144
0.0
144
0.0
144
0.0
144
1.0
144
0.0
144
0.0
144
0.0
144
0.0
144
1.0
147
0.0208333333333333
147
0.0
147
0.0
147
0.0
147
0.0
147
0.0208333333333333
147
0.0
147
0.0
147
0.0
147
0.0
147
1.0
147
0.0
147
0.0
147
0.0
147
0.0
147
1.0
  0
MATERIAL
  5
11
102
{ACAD_XDICTIONARY
360
12
102
}
102
{ACAD_REACTORS
330
10
102
}
330
10
100
AcDbMaterial
  1
ByLayer
 72
     0
 43
0.0208333333333333
 43
0.0
 43
0.0
 43
0.0
 43
0.0
 43
0.0208333333333333
 43
0.0
 43
0.0
 43
0.0
 43
0.0
 43
1.0
 43
0.0
 43
0.0
 43
0.0
 43
0.0
 43
1.0
 77
     0
 47
0.0208333333333333
 47
0.0
 47
0.0
 47
0.0
 47
0.0
 47
0.0208333333333333
 47
0.0
 47
0.0
 47
0.0
 47
0.0
 47
1.0
 47
0.0
 47
0.0
 47
0.0
 47
0.0
 47
1.0
171
     0
 49
0.0208333333333333
 49
0.0
 49
0.0
 49
0.0
 49
0.0
 49
0.0208333333333333
 49
0.0
 49
0.0
 49
0.0
 49
0.0
 49
1.0
 49
0.0
 49
0.0
 49
0.0
 49
0.0
 49
1.0
175
     0
142
0.0208333333333333
142
0.0
142
0.0
142
0.0
142
0.0
142
0.0208333333333333
142
0.0
142
0.0
142
0.0
142
0.0
142
1.0
142
0.0
142
0.0
142
0.0
142
0.0
142
1.0
179
     0
144
0.0208333333333333
144
0.0
144
0.0
144
0.0
144
0.0
144
0.0208333333333333
144
0.0
144
0.0
144
0.0
144
0.0
144
1.0
144
0.0
144
0.0
144
0.0
144
0.0
144
1.0
147
0.0208333333333333
147
0.0
147
0.0
147
0.0
147
0.0
147
0.0208333333333333
147
0.0
147
0.0
147
0.0
147
0.0
147
1.0
147
0.0
147
0.0
147
0.0
147
0.0
147
1.0
  0
MATERIAL
  5
21
102
{ACAD_XDICTIONARY
360
22
102
}
102
{ACAD_REACTORS
330
10
102
}
330
10
100
AcDbMaterial
  1
Global
 72
     0
 43
0.0208333333333333
 43
0.0
 43
0.0
 43
0.0
 43
0.0
 43
0.0208333333333333
 43
0.0
 43
0.0
 43
0.0
 43
0.0
 43
1.0
 43
0.0
 43
0.0
 43
0.0
 43
0.0
 43
1.0
 77
     0
 47
0.0208333333333333
 47
0.0
 47
0.0
 47
0.0
 47
0.0
 47
0.0208333333333333
 47
0.0
 47
0.0
 47
0.0
 47
0.0
 47
1.0
 47
0.0
 47
0.0
 47
0.0
 47
0.0
 47
1.0
171
     0
 49
0.0208333333333333
 49
0.0
 49
0.0
 49
0.0
 49
0.0
 49
0.0208333333333333
 49
0.0
 49
0.0
 49
0.0
 49
0.0
 49
1.0
 49
0.0
 49
0.0
 49
0.0
 49
0.0
 49
1.0
175
     0
142
0.0208333333333333
142
0.0
142
0.0
142
0.0
142
0.0
142
0.0208333333333333
142
0.0
142
0.0
142
0.0
142
0.0
142
1.0
142
0.0
142
0.0
142
0.0
142
0.0
142
1.0
179
     0
144
0.0208333333333333
144
0.0
144
0.0
144
0.0
144
0.0
144
0.0208333333333333
144
0.0
144
0.0
144
0.0
144
0.0
144
1.0
144
0.0
144
0.0
144
0.0
144
0.0
144
1.0
147
0.0208333333333333
147
0.0
147
0.0
147
0.0
147
0.0
147
0.0208333333333333
147
0.0
147
0.0
147
0.0
147
0.0
147
1.0
147
0.0
147
0.0
147
0.0
147
0.0
147
1.0
  0
MLEADERSTYLE
  5
72
102
{ACAD_REACTORS
330
71
102
}
330
71
100
AcDbMLeaderStyle
179
     2
170
     2
171
     1
172
     0
 90
        2
 40
0.0
 41
0.0
173
     1
 91
-1056964608
340
66
 92
       -2
290
     1
 42
0.09
291
     1
 43
0.36
  3
Standard
 44
0.18
300

342
60
174
     1
178
     6
175
     1
176
     0
 93
-1056964608
 45
0.18
292
     0
297
     0
 46
0.18
 94
-1056964608
 47
1.0
 49
1.0
140
1.0
293
     1
141
0.0
294
     1
177
     0
142
1.0
295
     0
296
     0
143
0.125
271
     0
272
     9
273
     9
298
     0
  0
MLINESTYLE
  5
6B
102
{ACAD_REACTORS
330
6A
102
}
330
6A
100
AcDbMlineStyle
  2
STANDARD
 70
     0
  3

 62
   256
 51
90.0
 52
90.0
 71
     2
 49
0.5
 62
   256
  6
BYLAYER
 49
-0.5
 62
   256
  6
BYLAYER
  0
ACDBPLACEHOLDER
  5
F
102
{ACAD_REACTORS
330
E
102
}
330
E
  0
SCALE
  5
3E
102
{ACAD_REACTORS
330
3D
102
}
330
3D
100
AcDbScale
 70
     0
300
1:1
140
1.0
141
1.0
290
     1
  0
SCALE
  5
3F
102
{ACAD_REACTORS
330
3D
102
}
330
3D
100
AcDbScale
 70
     0
300
1:2
140
1.0
141
2.0
290
     0
  0
SCALE
  5
40
102
{ACAD_REACTORS
330
3D
102
}
330
3D
100
AcDbScale
 70
     0
300
1:4
140
1.0
141
4.0
290
     0
  0
SCALE
  5
41
102
{ACAD_REACTORS
330
3D
102
}
330
3D
100
AcDbScale
 70
     0
300
1:5
140
1.0
141
5.0
290
     0
  0
SCALE
  5
42
102
{ACAD_REACTORS
330
3D
102
}
330
3D
100
AcDbScale
 70
     0
300
1:8
140
1.0
141
8.0
290
     0
  0
SCALE
  5
43
102
{ACAD_REACTORS
330
3D
102
}
330
3D
100
AcDbScale
 70
     0
300
1:10
140
1.0
141
10.0
290
     0
  0
SCALE
  5
44
102
{ACAD_REACTORS
330
3D
102
}
330
3D
100
AcDbScale
 70
     0
300
1:16
140
1.0
141
16.0
290
     0
  0
SCALE
  5
45
102
{ACAD_REACTORS
330
3D
102
}
330
3D
100
AcDbScale
 70
     0
300
1:20
140
1.0
141
20.0
290
     0
  0
SCALE
  5
46
102
{ACAD_REACTORS
330
3D
102
}
330
3D
100
AcDbScale
 70
     0
300
1:30
140
1.0
141
30.0
290
     0
  0
SCALE
  5
47
102
{ACAD_REACTORS
330
3D
102
}
330
3D
100
AcDbScale
 70
     0
300
1:40
140
1.0
141
40.0
290
     0
  0
SCALE
  5
48
102
{ACAD_REACTORS
330
3D
102
}
330
3D
100
AcDbScale
 70
     0
300
1:50
140
1.0
141
50.0
290
     0
  0
SCALE
  5
49
102
{ACAD_REACTORS
330
3D
102
}
330
3D
100
AcDbScale
 70
     0
300
1:100
140
1.0
141
100.0
290
     0
  0
SCALE
  5
4A
102
{ACAD_REACTORS
330
3D
102
}
330
3D
100
AcDbScale
 70
     0
300
2:1
140
2.0
141
1.0
290
     0
  0
SCALE
  5
4B
102
{ACAD_REACTORS
330
3D
102
}
330
3D
100
AcDbScale
 70
     0
300
4:1
140
4.0
141
1.0
290
     0
  0
SCALE
  5
4C
102
{ACAD_REACTORS
330
3D
102
}
330
3D
100
AcDbScale
 70
     0
300
8:1
140
8.0
141
1.0
290
     0
  0
SCALE
  5
4D
102
{ACAD_REACTORS
330
3D
102
}
330
3D
100
AcDbScale
 70
     0
300
10:1
140
10.0
141
1.0
290
     0
  0
SCALE
  5
4E
102
{ACAD_REACTORS
330
3D
102
}
330
3D
100
AcDbScale
 70
     0
300
100:1
140
100.0
141
1.0
290
     0
  0
SCALE
  5
4F
102
{ACAD_REACTORS
330
3D
102
}
330
3D
100
AcDbScale
 70
     0
300
1/128" = 1'-0"
140
0.0078125
141
12.0
290
     0
  0
SCALE
  5
50
102
{ACAD_REACTORS
330
3D
102
}
330
3D
100
AcDbScale
 70
     0
300
1/64" = 1'-0"
140
0.015625
141
12.0
290
     0
  0
SCALE
  5
51
102
{ACAD_REACTORS
330
3D
102
}
330
3D
100
AcDbScale
 70
     0
300
1/32" = 1'-0"
140
0.03125
141
12.0
290
     0
  0
SCALE
  5
52
102
{ACAD_REACTORS
330
3D
102
}
330
3D
100
AcDbScale
 70
     0
300
1/16" = 1'-0"
140
0.0625
141
12.0
290
     0
  0
SCALE
  5
53
102
{ACAD_REACTORS
330
3D
102
}
330
3D
100
AcDbScale
 70
     0
300
3/32" = 1'-0"
140
0.09375
141
12.0
290
     0
  0
SCALE
  5
54
102
{ACAD_REACTORS
330
3D
102
}
330
3D
100
AcDbScale
 70
     0
300
1/8" = 1'-0"
140
0.125
141
12.0
290
     0
  0
SCALE
  5
55
102
{ACAD_REACTORS
330
3D
102
}
330
3D
100
AcDbScale
 70
     0
300
3/16" = 1'-0"
140
0.1875
141
12.0
290
     0
  0
SCALE
  5
56
102
{ACAD_REACTORS
330
3D
102
}
330
3D
100
AcDbScale
 70
     0
300
1/4" = 1'-0"
140
0.25
141
12.0
290
     0
  0
SCALE
  5
57
102
{ACAD_REACTORS
330
3D
102
}
330
3D
100
AcDbScale
 70
     0
300
3/8" = 1'-0"
140
0.375
141
12.0
290
     0
  0
SCALE
  5
58
102
{ACAD_REACTORS
330
3D
102
}
330
3D
100
AcDbScale
 70
     0
300
1/2" = 1'-0"
140
0.5
141
12.0
290
     0
  0
SCALE
  5
59
102
{ACAD_REACTORS
330
3D
102
}
330
3D
100
AcDbScale
 70
     0
300
3/4" = 1'-0"
140
0.75
141
12.0
290
     0
  0
SCALE
  5
5A
102
{ACAD_REACTORS
330
3D
102
}
330
3D
100
AcDbScale
 70
     0
300
1" = 1'-0"
140
1.0
141
12.0
290
     0
  0
SCALE
  5
5B
102
{ACAD_REACTORS
330
3D
102
}
330
3D
100
AcDbScale
 70
     0
300
1-1/2" = 1'-0"
140
1.5
141
12.0
290
     0
  0
SCALE
  5
5C
102
{ACAD_REACTORS
330
3D
102
}
330
3D
100
AcDbScale
 70
     0
300
3" = 1'-0"
140
3.0
141
12.0
290
     0
  0
SCALE
  5
5D
102
{ACAD_REACTORS
330
3D
102
}
330
3D
100
AcDbScale
 70
     0
300
6" = 1'-0"
140
6.0
141
12.0
290
     0
  0
SCALE
  5
5E
102
{ACAD_REACTORS
330
3D
102
}
330
3D
100
AcDbScale
 70
     0
300
1'-0" = 1'-0"
140
12.0
141
12.0
290
     0
  0
ACDBSECTIONVIEWSTYLE
  5
2C2
102
{ACAD_XDICTIONARY
360
A0C
102
}
102
{ACAD_REACTORS
330
2AA
102
}
330
2AA
100
AcDbModelDocViewStyle
 70
     0
  3
Imperial24
290
     0
100
AcDbSectionViewStyle
 70
     0
 71
     0
 90
       78
 71
     1
340
60
 62
   256
 40
0.24
340
0
340
0
 62
   256
 40
0.24
300
I, O, Q, S, X, Z
 40
0.48
 90
        3
 40
0.18
 90
        1
 71
     2
340
68
 90
       25
 62
   256
340
68
 90
       50
 62
   256
 40
0.24
 40
0.0
 40
0.24
 71
     3
340
60
 62
   256
 40
0.24
 90
        1
 40
0.75
 90
        1
300
%<\AcVar ViewType \f "%tc1">% %<\AcVar ViewSectionStartId>%-%<\AcVar ViewSectionEndId>%\PSCALE %<\AcVar ViewScale \f "%sn">%
 71
     4
 62
   256
 62
   257
300
ANSI31
 40
1.0
 90
        0
290
     0
290
     0
 90
        6
 40
0.0
 40
1.570796326794896
 40
0.2617993877991494
 40
1.308996938995747
 40
-0.2617993877991494
 40
1.832595714594046
  0
ACDBSECTIONVIEWSTYLE
  5
2AB
102
{ACAD_XDICTIONARY
360
A08
102
}
102
{ACAD_REACTORS
330
2AA
102
}
330
2AA
100
AcDbModelDocViewStyle
 70
     0
  3
Metric50
290
     0
100
AcDbSectionViewStyle
 70
     0
 71
     0
 90
      102
 71
     1
340
60
 62
   256
 40
5.0
340
0
340
0
 62
   256
 40
5.0
300
I, O, Q, S, X, Z
 40
10.0
 90
        0
 40
2.5
 90
        0
 71
     2
340
68
 90
       25
 62
   256
340
68
 90
       50
 62
   256
 40
5.0
 40
2.5
 40
5.0
 71
     3
340
60
 62
   256
 40
5.0
 90
        0
 40
15.0
 90
        1
300
%<\AcVar ViewSectionStartId>%-%<\AcVar ViewSectionEndId>% (%<\AcVar ViewScale \f "%sn">%)
 71
     4
 62
   256
 62
   257
300
ANSI31
 40
1.0
 90
        0
290
     0
290
     0
 90
        6
 40
0.0
 40
1.570796326794896
 40
0.2617993877991494
 40
1.308996938995747
 40
-0.2617993877991494
 40
1.832595714594046
  0
TABLESTYLE
  5
70
102
{ACAD_XDICTIONARY
360
132
102
}
102
{ACAD_REACTORS
330
6F
102
}
330
6F
100
AcDbTableStyle
280
     0
  3
Standard
 70
     0
 71
     0
 40
0.06
 41
0.06
280
     0
281
     0
  7
Standard
140
0.18
170
     2
 62
     0
 63
     7
283
     0
 90
      512
 91
        0
  1

274
    -2
284
     1
 64
     0
275
    -2
285
     1
 65
     0
276
    -2
286
     1
 66
     0
277
    -2
287
     1
 67
     0
278
    -2
288
     1
 68
     0
279
    -2
289
     1
 69
     0
  7
Standard
140
0.25
170
     5
 62
     0
 63
     7
283
     0
 90
      512
 91
        0
  1

274
    -2
284
     1
 64
     0
275
    -2
285
     1
 65
     0
276
    -2
286
     1
 66
     0
277
    -2
287
     1
 67
     0
278
    -2
288
     1
 68
     0
279
    -2
289
     1
 69
     0
  7
Standard
140
0.18
170
     5
 62
     0
 63
     7
283
     0
 90
      512
 91
        0
  1

274
    -2
284
     1
 64
     0
275
    -2
285
     1
 65
     0
276
    -2
286
     1
 66
     0
277
    -2
287
     1
 67
     0
278
    -2
288
     1
 68
     0
279
    -2
289
     1
 69
     0
  0
VISUALSTYLE
  5
2F
102
{ACAD_REACTORS
330
29
102
}
330
29
100
AcDbVisualStyle
  2
2dWireframe
 70
     4
177
     3
291
     0
 70
    58
 90
        0
176
     1
 90
        2
176
     1
 90
        0
176
     1
 90
        0
176
     1
 40
0.6
176
     1
 40
30.0
176
     1
 62
     7
176
     1
 90
        1
176
     1
 90
        4
176
     1
 62
     7
176
     1
 62
   257
176
     1
 90
        1
176
     1
 90
        1
176
     1
 40
1.0
176
     1
 90
        0
176
     1
 62
   257
176
     1
 40
1.0
176
     1
 90
        1
176
     1
 90
        6
176
     1
 90
        2
176
     1
 62
     7
176
     1
 90
        5
176
     1
 90
        0
176
     1
 90
        0
176
     1
290
     0
176
     1
 90
        1
176
     1
 40
0.0
176
     1
 90
        0
176
     1
290
     1
176
     1
290
     1
176
     1
290
     0
176
     1
290
     0
176
     1
290
     0
176
     1
290
     0
176
     1
290
     0
176
     1
290
     0
176
     1
290
     0
176
     1
 90
       50
176
     1
 40
0.0
176
     1
 40
1.0
176
     1
 90
        0
176
     1
 62
    18
420
        0
176
     1
 90
       50
176
     1
 90
        3
176
     1
 62
     5
420
      255
176
     1
290
     0
176
     1
 90
       50
176
     1
 90
       50
176
     1
 90
       50
176
     1
290
     0
176
     1
 90
       50
176
     1
 62
   256
176
     0
 40
1.0
176
     0
 90
        2
176
     1
  1
strokes_ogs.tif
176
     1
290
     0
176
     1
 40
1.0
176
     1
 40
1.0
176
     1
  0
VISUALSTYLE
  5
31
102
{ACAD_REACTORS
330
29
102
}
330
29
100
AcDbVisualStyle
  2
3D Hidden
 70
     6
177
     3
291
     0
 70
    58
 90
        1
176
     1
 90
        2
176
     1
 90
        2
176
     1
 90
        0
176
     1
 40
0.6
176
     1
 40
30.0
176
     1
 62
     7
176
     1
 90
        2
176
     1
 90
        2
176
     1
 62
     7
176
     1
 62
   257
176
     1
 90
        2
176
     1
 90
        1
176
     1
 40
179.0
176
     1
 90
        0
176
     1
 62
   257
176
     1
 40
1.0
176
     1
 90
        1
176
     1
 90
        6
176
     1
 90
        2
176
     1
 62
     7
176
     1
 90
        3
176
     1
 90
        0
176
     1
 90
        0
176
     1
290
     0
176
     1
 90
        1
176
     1
 40
0.0
176
     1
 90
        0
176
     1
290
     0
176
     1
290
     1
176
     1
290
     1
176
     1
290
     0
176
     1
290
     0
176
     1
290
     0
176
     1
290
     0
176
     1
290
     0
176
     1
290
     0
176
     1
 90
       50
176
     1
 40
0.0
176
     1
 40
1.0
176
     1
 90
        0
176
     1
 62
    18
420
        0
176
     1
 90
       50
176
     1
 90
        3
176
     1
 62
     5
420
      255
176
     1
290
     0
176
     1
 90
       50
176
     1
 90
       50
176
     1
 90
       50
176
     1
290
     0
176
     1
 90
       50
176
     1
 62
   256
176
     0
 40
1.0
176
     0
 90
        2
176
     1
  1
strokes_ogs.tif
176
     1
290
     0
176
     1
 40
1.0
176
     1
 40
1.0
176
     1
  0
VISUALSTYLE
  5
30
102
{ACAD_REACTORS
330
29
102
}
330
29
100
AcDbVisualStyle
  2
3dWireframe
 70
     5
177
     3
291
     0
 70
    58
 90
        0
176
     1
 90
        2
176
     1
 90
        0
176
     1
 90
        0
176
     1
 40
0.6
176
     1
 40
30.0
176
     1
 62
     7
176
     1
 90
        1
176
     1
 90
        4
176
     1
 62
     7
176
     1
 62
   257
176
     1
 90
        1
176
     1
 90
        1
176
     1
 40
1.0
176
     1
 90
        0
176
     1
 62
   257
176
     1
 40
1.0
176
     1
 90
        1
176
     1
 90
        6
176
     1
 90
        2
176
     1
 62
     7
176
     1
 90
        5
176
     1
 90
        0
176
     1
 90
        0
176
     1
290
     0
176
     1
 90
        1
176
     1
 40
0.0
176
     1
 90
        0
176
     1
290
     0
176
     1
290
     1
176
     1
290
     1
176
     1
290
     0
176
     1
290
     0
176
     1
290
     0
176
     1
290
     0
176
     1
290
     0
176
     1
290
     0
176
     1
 90
       50
176
     1
 40
0.0
176
     1
 40
1.0
176
     1
 90
        0
176
     1
 62
    18
420
        0
176
     1
 90
       50
176
     1
 90
        3
176
     1
 62
     5
420
      255
176
     1
290
     0
176
     1
 90
       50
176
     1
 90
       50
176
     1
 90
       50
176
     1
290
     0
176
     1
 90
       50
176
     1
 62
   256
176
     0
 40
1.0
176
     0
 90
        2
176
     1
  1
strokes_ogs.tif
176
     1
290
     0
176
     1
 40
1.0
176
     1
 40
1.0
176
     1
  0
VISUALSTYLE
  5
2E
102
{ACAD_REACTORS
330
29
102
}
330
29
100
AcDbVisualStyle
  2
Basic
 70
     7
177
     3
291
     1
 70
    58
 90
        1
176
     1
 90
        0
176
     1
 90
        1
176
     1
 90
        0
176
     1
 40
0.6
176
     1
 40
30.0
176
     1
 62
     7
176
     1
 90
        0
176
     1
 90
        4
176
     1
 62
     7
176
     1
 62
   257
176
     1
 90
        1
176
     1
 90
        1
176
     1
 40
1.0
176
     1
 90
        8
176
     1
 62
     7
176
     1
 40
1.0
176
     1
 90
        1
176
     1
 90
        6
176
     1
 90
        2
176
     1
 62
     7
176
     1
 90
        5
176
     1
 90
        0
176
     1
 90
        0
176
     1
290
     0
176
     1
 90
        1
176
     1
 40
0.0
176
     1
 90
        0
176
     1
290
     0
176
     1
290
     1
176
     1
290
     1
176
     1
290
     0
176
     1
290
     0
176
     1
290
     0
176
     1
290
     0
176
     1
290
     0
176
     1
290
     0
176
     1
 90
       50
176
     1
 40
0.0
176
     1
 40
1.0
176
     1
 90
        0
176
     1
 62
    18
420
        0
176
     1
 90
       50
176
     1
 90
        3
176
     1
 62
     5
420
      255
176
     1
290
     0
176
     1
 90
       50
176
     1
 90
       50
176
     1
 90
       50
176
     1
290
     0
176
     1
 90
       50
176
     1
 62
   256
176
     0
 40
1.0
176
     0
 90
        2
176
     1
  1
strokes_ogs.tif
176
     1
290
     0
176
     1
 40
1.0
176
     1
 40
1.0
176
     1
  0
VISUALSTYLE
  5
35
102
{ACAD_REACTORS
330
29
102
}
330
29
100
AcDbVisualStyle
  2
Brighten
 70
    12
177
     3
291
     1
 70
    58
 90
        2
176
     1
 90
        2
176
     1
 90
        0
176
     1
 90
        0
176
     1
 40
0.6
176
     1
 40
30.0
176
     1
 62
     7
176
     1
 90
        1
176
     1
 90
        4
176
     1
 62
     7
176
     1
 62
   257
176
     1
 90
        1
176
     1
 90
        1
176
     1
 40
1.0
176
     1
 90
        8
176
     1
 62
     7
176
     1
 40
1.0
176
     1
 90
        1
176
     1
 90
        6
176
     1
 90
        2
176
     1
 62
     7
176
     1
 90
        5
176
     1
 90
        0
176
     1
 90
        0
176
     1
290
     0
176
     1
 90
        1
176
     1
 40
50.0
176
     1
 90
        0
176
     1
290
     0
176
     1
290
     1
176
     1
290
     1
176
     1
290
     0
176
     1
290
     0
176
     1
290
     0
176
     1
290
     0
176
     1
290
     0
176
     1
290
     0
176
     1
 90
       50
176
     1
 40
0.0
176
     1
 40
1.0
176
     1
 90
        0
176
     1
 62
    18
420
        0
176
     1
 90
       50
176
     1
 90
        3
176
     1
 62
     5
420
      255
176
     1
290
     0
176
     1
 90
       50
176
     1
 90
       50
176
     1
 90
       50
176
     1
290
     0
176
     1
 90
       50
176
     1
 62
   256
176
     0
 40
1.0
176
     0
 90
        2
176
     1
  1
strokes_ogs.tif
176
     1
290
     0
176
     1
 40
1.0
176
     1
 40
1.0
176
     1
  0
VISUALSTYLE
  5
39
102
{ACAD_REACTORS
330
29
102
}
330
29
100
AcDbVisualStyle
  2
ColorChange
 70
    16
177
     3
291
     1
 70
    58
 90
        2
176
     1
 90
        2
176
     1
 90
        3
176
     1
 90
        0
176
     1
 40
0.6
176
     1
 40
30.0
176
     1
 62
     8
176
     1
 90
        1
176
     1
 90
        4
176
     1
 62
     7
176
     1
 62
   257
176
     1
 90
        1
176
     1
 90
        1
176
     1
 40
1.0
176
     1
 90
        8
176
     1
 62
     8
176
     1
 40
1.0
176
     1
 90
        1
176
     1
 90
        6
176
     1
 90
        2
176
     1
 62
     7
176
     1
 90
        5
176
     1
 90
        0
176
     1
 90
        0
176
     1
290
     0
176
     1
 90
        1
176
     1
 40
0.0
176
     1
 90
        0
176
     1
290
     0
176
     1
290
     1
176
     1
290
     1
176
     1
290
     0
176
     1
290
     0
176
     1
290
     0
176
     1
290
     0
176
     1
290
     0
176
     1
290
     0
176
     1
 90
       50
176
     1
 40
0.0
176
     1
 40
1.0
176
     1
 90
        0
176
     1
 62
    18
420
        0
176
     1
 90
       50
176
     1
 90
        3
176
     1
 62
     5
420
      255
176
     1
290
     0
176
     1
 90
       50
176
     1
 90
       50
176
     1
 90
       50
176
     1
290
     0
176
     1
 90
       50
176
     1
 62
   256
176
     0
 40
1.0
176
     0
 90
        2
176
     1
  1
strokes_ogs.tif
176
     1
290
     0
176
     1
 40
1.0
176
     1
 40
1.0
176
     1
  0
VISUALSTYLE
  5
32
102
{ACAD_REACTORS
330
29
102
}
330
29
100
AcDbVisualStyle
  2
Conceptual
 70
     9
177
     3
291
     0
 70
    58
 90
        3
176
     1
 90
        2
176
     1
 90
        0
176
     1
 90
        0
176
     1
 40
0.6
176
     1
 40
30.0
176
     1
 62
     7
176
     1
 90
        2
176
     1
 90
        2
176
     1
 62
     7
176
     1
 62
   257
176
     1
 90
        1
176
     1
 90
        1
176
     1
 40
179.0
176
     1
 90
        8
176
     1
 62
     7
176
     1
 40
1.0
176
     1
 90
        1
176
     1
 90
        6
176
     1
 90
        2
176
     1
 62
     7
176
     1
 90
        3
176
     1
 90
        0
176
     1
 90
        0
176
     1
290
     0
176
     1
 90
        1
176
     1
 40
0.0
176
     1
 90
        0
176
     1
290
     0
176
     1
290
     1
176
     1
290
     1
176
     1
290
     0
176
     1
290
     0
176
     1
290
     0
176
     1
290
     0
176
     1
290
     0
176
     1
290
     0
176
     1
 90
       50
176
     1
 40
0.0
176
     1
 40
1.0
176
     1
 90
        0
176
     1
 62
    18
420
        0
176
     1
 90
       50
176
     1
 90
        3
176
     1
 62
     5
420
      255
176
     1
290
     0
176
     1
 90
       50
176
     1
 90
       50
176
     1
 90
       50
176
     1
290
     0
176
     1
 90
       50
176
     1
 62
   256
176
     0
 40
1.0
176
     0
 90
        2
176
     1
  1
strokes_ogs.tif
176
     1
290
     0
176
     1
 40
1.0
176
     1
 40
1.0
176
     1
  0
VISUALSTYLE
  5
34
102
{ACAD_REACTORS
330
29
102
}
330
29
100
AcDbVisualStyle
  2
Dim
 70
    11
177
     3
291
     1
 70
    58
 90
        2
176
     1
 90
        2
176
     1
 90
        0
176
     1
 90
        0
176
     1
 40
0.6
176
     1
 40
30.0
176
     1
 62
     7
176
     1
 90
        1
176
     1
 90
        4
176
     1
 62
     7
176
     1
 62
   257
176
     1
 90
        1
176
     1
 90
        1
176
     1
 40
1.0
176
     1
 90
        8
176
     1
 62
     7
176
     1
 40
1.0
176
     1
 90
        1
176
     1
 90
        6
176
     1
 90
        2
176
     1
 62
     7
176
     1
 90
        5
176
     1
 90
        0
176
     1
 90
        0
176
     1
290
     0
176
     1
 90
        1
176
     1
 40
-50.0
176
     1
 90
        0
176
     1
290
     0
176
     1
290
     1
176
     1
290
     1
176
     1
290
     0
176
     1
290
     0
176
     1
290
     0
176
     1
290
     0
176
     1
290
     0
176
     1
290
     0
176
     1
 90
       50
176
     1
 40
0.0
176
     1
 40
1.0
176
     1
 90
        0
176
     1
 62
    18
420
        0
176
     1
 90
       50
176
     1
 90
        3
176
     1
 62
     5
420
      255
176
     1
290
     0
176
     1
 90
       50
176
     1
 90
       50
176
     1
 90
       50
176
     1
290
     0
176
     1
 90
       50
176
     1
 62
   256
176
     0
 40
1.0
176
     0
 90
        2
176
     1
  1
strokes_ogs.tif
176
     1
290
     0
176
     1
 40
1.0
176
     1
 40
1.0
176
     1
  0
VISUALSTYLE
  5
3C
102
{ACAD_REACTORS
330
29
102
}
330
29
100
AcDbVisualStyle
  2
EdgeColorOff
 70
    22
177
     3
291
     1
 70
    58
 90
        2
176
     0
 90
        2
176
     0
 90
        0
176
     0
 90
        0
176
     0
 40
0.6
176
     0
 40
30.0
176
     0
 62
     7
176
     0
 90
        1
176
     0
 90
        4
176
     0
 62
     7
176
     0
 62
   257
176
     0
 90
        1
176
     0
 90
        1
176
     0
 40
1.0
176
     0
 90
        8
176
     2
 62
     7
176
     0
 40
1.0
176
     0
 90
        1
176
     0
 90
        6
176
     0
 90
        2
176
     0
 62
     7
176
     0
 90
        5
176
     0
 90
        0
176
     0
 90
        0
176
     0
290
     0
176
     0
 90
        1
176
     0
 40
0.0
176
     0
 90
        0
176
     0
290
     0
176
     1
290
     1
176
     1
290
     1
176
     1
290
     0
176
     1
290
     0
176
     1
290
     0
176
     1
290
     0
176
     1
290
     0
176
     1
290
     0
176
     1
 90
       50
176
     1
 40
0.0
176
     1
 40
1.0
176
     1
 90
        0
176
     1
 62
    18
420
        0
176
     1
 90
       50
176
     1
 90
        3
176
     1
 62
     5
420
      255
176
     1
290
     0
176
     1
 90
       50
176
     1
 90
       50
176
     1
 90
       50
176
     1
290
     0
176
     1
 90
       50
176
     1
 62
   256
176
     0
 40
1.0
176
     0
 90
        2
176
     1
  1
strokes_ogs.tif
176
     1
290
     0
176
     1
 40
1.0
176
     1
 40
1.0
176
     1
  0
VISUALSTYLE
  5
38
102
{ACAD_REACTORS
330
29
102
}
330
29
100
AcDbVisualStyle
  2
Facepattern
 70
    15
177
     3
291
     1
 70
    58
 90
        2
176
     1
 90
        2
176
     1
 90
        0
176
     1
 90
        0
176
     1
 40
0.6
176
     1
 40
30.0
176
     1
 62
     7
176
     1
 90
        1
176
     1
 90
        4
176
     1
 62
     7
176
     1
 62
   257
176
     1
 90
        1
176
     1
 90
        1
176
     1
 40
1.0
176
     1
 90
        8
176
     1
 62
     7
176
     1
 40
1.0
176
     1
 90
        1
176
     1
 90
        6
176
     1
 90
        2
176
     1
 62
     7
176
     1
 90
        5
176
     1
 90
        0
176
     1
 90
        0
176
     1
290
     0
176
     1
 90
        1
176
     1
 40
0.0
176
     1
 90
        0
176
     1
290
     0
176
     1
290
     1
176
     1
290
     1
176
     1
290
     0
176
     1
290
     0
176
     1
290
     0
176
     1
290
     0
176
     1
290
     0
176
     1
290
     0
176
     1
 90
       50
176
     1
 40
0.0
176
     1
 40
1.0
176
     1
 90
        0
176
     1
 62
    18
420
        0
176
     1
 90
       50
176
     1
 90
        3
176
     1
 62
     5
420
      255
176
     1
290
     0
176
     1
 90
       50
176
     1
 90
       50
176
     1
 90
       50
176
     1
290
     0
176
     1
 90
       50
176
     1
 62
   256
176
     0
 40
1.0
176
     0
 90
        2
176
     1
  1
strokes_ogs.tif
176
     1
290
     0
176
     1
 40
1.0
176
     1
 40
1.0
176
     1
  0
VISUALSTYLE
  5
2A
102
{ACAD_REACTORS
330
29
102
}
330
29
100
AcDbVisualStyle
  2
Flat
 70
     0
177
     3
291
     1
 70
    58
 90
        2
176
     1
 90
        1
176
     1
 90
        1
176
     1
 90
        2
176
     1
 40
0.6
176
     1
 40
30.0
176
     1
 62
     7
176
     1
 90
        0
176
     1
 90
        4
176
     1
 62
     7
176
     1
 62
   257
176
     1
 90
        1
176
     1
 90
        1
176
     1
 40
1.0
176
     1
 90
        8
176
     1
 62
     7
176
     1
 40
1.0
176
     1
 90
        1
176
     1
 90
        6
176
     1
 90
        2
176
     1
 62
     7
176
     1
 90
        5
176
     1
 90
        0
176
     1
 90
        0
176
     1
290
     0
176
     1
 90
       13
176
     1
 40
0.0
176
     1
 90
        0
176
     1
290
     0
176
     1
290
     1
176
     1
290
     1
176
     1
290
     0
176
     1
290
     0
176
     1
290
     0
176
     1
290
     0
176
     1
290
     0
176
     1
290
     0
176
     1
 90
       50
176
     1
 40
0.0
176
     1
 40
1.0
176
     1
 90
        0
176
     1
 62
    18
420
        0
176
     1
 90
       50
176
     1
 90
        3
176
     1
 62
     5
420
      255
176
     1
290
     0
176
     1
 90
       50
176
     1
 90
       50
176
     1
 90
       50
176
     1
290
     0
176
     1
 90
       50
176
     1
 62
   256
176
     0
 40
1.0
176
     0
 90
        2
176
     1
  1
strokes_ogs.tif
176
     1
290
     0
176
     1
 40
1.0
176
     1
 40
1.0
176
     1
  0
VISUALSTYLE
  5
2B
102
{ACAD_REACTORS
330
29
102
}
330
29
100
AcDbVisualStyle
  2
FlatWithEdges
 70
     1
177
     3
291
     1
 70
    58
 90
        2
176
     1
 90
        1
176
     1
 90
        1
176
     1
 90
        2
176
     1
 40
0.6
176
     1
 40
30.0
176
     1
 62
     7
176
     1
 90
        1
176
     1
 90
        4
176
     1
 62
     7
176
     1
 62
   257
176
     1
 90
        1
176
     1
 90
        1
176
     1
 40
1.0
176
     1
 90
        0
176
     1
 62
   257
176
     1
 40
1.0
176
     1
 90
        1
176
     1
 90
        6
176
     1
 90
        2
176
     1
 62
     7
176
     1
 90
        5
176
     1
 90
        0
176
     1
 90
        0
176
     1
290
     0
176
     1
 90
       13
176
     1
 40
0.0
176
     1
 90
        0
176
     1
290
     0
176
     1
290
     1
176
     1
290
     1
176
     1
290
     0
176
     1
290
     0
176
     1
290
     0
176
     1
290
     0
176
     1
290
     0
176
     1
290
     0
176
     1
 90
       50
176
     1
 40
0.0
176
     1
 40
1.0
176
     1
 90
        0
176
     1
 62
    18
420
        0
176
     1
 90
       50
176
     1
 90
        3
176
     1
 62
     5
420
      255
176
     1
290
     0
176
     1
 90
       50
176
     1
 90
       50
176
     1
 90
       50
176
     1
290
     0
176
     1
 90
       50
176
     1
 62
   256
176
     0
 40
1.0
176
     0
 90
        2
176
     1
  1
strokes_ogs.tif
176
     1
290
     0
176
     1
 40
1.0
176
     1
 40
1.0
176
     1
  0
VISUALSTYLE
  5
2C
102
{ACAD_REACTORS
330
29
102
}
330
29
100
AcDbVisualStyle
  2
Gouraud
 70
     2
177
     3
291
     1
 70
    58
 90
        2
176
     1
 90
        2
176
     1
 90
        1
176
     1
 90
        2
176
     1
 40
0.6
176
     1
 40
30.0
176
     1
 62
     7
176
     1
 90
        0
176
     1
 90
        4
176
     1
 62
     7
176
     1
 62
   257
176
     1
 90
        1
176
     1
 90
        1
176
     1
 40
1.0
176
     1
 90
        0
176
     1
 62
     7
176
     1
 40
1.0
176
     1
 90
        1
176
     1
 90
        6
176
     1
 90
        2
176
     1
 62
     7
176
     1
 90
        5
176
     1
 90
        0
176
     1
 90
        0
176
     1
290
     0
176
     1
 90
       13
176
     1
 40
0.0
176
     1
 90
        0
176
     1
290
     0
176
     1
290
     1
176
     1
290
     1
176
     1
290
     0
176
     1
290
     0
176
     1
290
     0
176
     1
290
     0
176
     1
290
     0
176
     1
290
     0
176
     1
 90
       50
176
     1
 40
0.0
176
     1
 40
1.0
176
     1
 90
        0
176
     1
 62
    18
420
        0
176
     1
 90
       50
176
     1
 90
        3
176
     1
 62
     5
420
      255
176
     1
290
     0
176
     1
 90
       50
176
     1
 90
       50
176
     1
 90
       50
176
     1
290
     0
176
     1
 90
       50
176
     1
 62
   256
176
     0
 40
1.0
176
     0
 90
        2
176
     1
  1
strokes_ogs.tif
176
     1
290
     0
176
     1
 40
1.0
176
     1
 40
1.0
176
     1
  0
VISUALSTYLE
  5
2D
102
{ACAD_REACTORS
330
29
102
}
330
29
100
AcDbVisualStyle
  2
GouraudWithEdges
 70
     3
177
     3
291
     1
 70
    58
 90
        2
176
     1
 90
        2
176
     1
 90
        1
176
     1
 90
        2
176
     1
 40
0.6
176
     1
 40
30.0
176
     1
 62
     7
176
     1
 90
        1
176
     1
 90
        4
176
     1
 62
     7
176
     1
 62
   257
176
     1
 90
        1
176
     1
 90
        1
176
     1
 40
1.0
176
     1
 90
        0
176
     1
 62
   257
176
     1
 40
1.0
176
     1
 90
        1
176
     1
 90
        6
176
     1
 90
        2
176
     1
 62
     7
176
     1
 90
        5
176
     1
 90
        0
176
     1
 90
        0
176
     1
290
     0
176
     1
 90
       13
176
     1
 40
0.0
176
     1
 90
        0
176
     1
290
     0
176
     1
290
     1
176
     1
290
     1
176
     1
290
     0
176
     1
290
     0
176
     1
290
     0
176
     1
290
     0
176
     1
290
     0
176
     1
290
     0
176
     1
 90
       50
176
     1
 40
0.0
176
     1
 40
1.0
176
     1
 90
        0
176
     1
 62
    18
420
        0
176
     1
 90
       50
176
     1
 90
        3
176
     1
 62
     5
420
      255
176
     1
290
     0
176
     1
 90
       50
176
     1
 90
       50
176
     1
 90
       50
176
     1
290
     0
176
     1
 90
       50
176
     1
 62
   256
176
     0
 40
1.0
176
     0
 90
        2
176
     1
  1
strokes_ogs.tif
176
     1
290
     0
176
     1
 40
1.0
176
     1
 40
1.0
176
     1
  0
VISUALSTYLE
  5
2A4
102
{ACAD_REACTORS
330
29
102
}
330
29
100
AcDbVisualStyle
  2
Hidden
 70
     6
177
     3
291
     0
 70
    58
 90
        1
176
     1
 90
        2
176
     1
 90
        2
176
     1
 90
        0
176
     1
 40
0.6
176
     1
 40
30.0
176
     1
 62
     7
420
 16777215
176
     1
 90
        2
176
     1
 90
        2
176
     1
 62
     7
176
     1
 62
   257
176
     1
 90
        2
176
     1
 90
        1
176
     1
 40
40.0
176
     1
 90
        0
176
     1
 62
   257
176
     1
 40
1.0
176
     1
 90
        1
176
     1
 90
        6
176
     1
 90
        2
176
     1
 62
     7
176
     1
 90
        3
176
     1
 90
        0
176
     1
 90
        0
176
     1
290
     0
176
     1
 90
        1
176
     1
 40
0.0
176
     1
 90
        0
176
     1
290
     0
176
     1
290
     1
176
     1
290
     1
176
     1
290
     0
176
     1
290
     0
176
     1
290
     0
176
     1
290
     0
176
     1
290
     0
176
     1
290
     0
176
     1
 90
       50
176
     1
 40
0.0
176
     1
 40
1.0
176
     1
 90
        0
176
     1
 62
    18
420
        0
176
     1
 90
       50
176
     1
 90
        3
176
     1
 62
     5
420
      255
176
     1
290
     0
176
     1
 90
       50
176
     1
 90
       50
176
     1
 90
       50
176
     1
290
     0
176
     1
 90
       50
176
     1
 62
   256
176
     0
 40
1.0
176
     0
 90
        2
176
     1
  1
strokes_ogs.tif
176
     1
290
     0
176
     1
 40
1.0
176
     1
 40
1.0
176
     1
  0
VISUALSTYLE
  5
3A
102
{ACAD_REACTORS
330
29
102
}
330
29
100
AcDbVisualStyle
  2
JitterOff
 70
    20
177
     3
291
     1
 70
    58
 90
        2
176
     0
 90
        2
176
     0
 90
        0
176
     0
 90
        0
176
     0
 40
0.6
176
     0
 40
30.0
176
     0
 62
     7
176
     0
 90
        1
176
     0
 90
        4
176
     0
 62
     7
176
     0
 62
   257
176
     0
 90
        1
176
     0
 90
        1
176
     0
 40
1.0
176
     0
 90
       10
176
     2
 62
     7
176
     0
 40
1.0
176
     0
 90
        1
176
     0
 90
        6
176
     0
 90
        2
176
     0
 62
     7
176
     0
 90
        5
176
     0
 90
        0
176
     0
 90
        0
176
     0
290
     0
176
     0
 90
        1
176
     0
 40
0.0
176
     0
 90
        0
176
     0
290
     0
176
     1
290
     1
176
     1
290
     1
176
     1
290
     0
176
     1
290
     0
176
     1
290
     0
176
     1
290
     0
176
     1
290
     0
176
     1
290
     0
176
     1
 90
       50
176
     1
 40
0.0
176
     1
 40
1.0
176
     1
 90
        0
176
     1
 62
    18
420
        0
176
     1
 90
       50
176
     1
 90
        3
176
     1
 62
     5
420
      255
176
     1
290
     0
176
     1
 90
       50
176
     1
 90
       50
176
     1
 90
       50
176
     1
290
     0
176
     1
 90
       50
176
     1
 62
   256
176
     0
 40
1.0
176
     0
 90
        2
176
     1
  1
strokes_ogs.tif
176
     1
290
     0
176
     1
 40
1.0
176
     1
 40
1.0
176
     1
  0
VISUALSTYLE
  5
37
102
{ACAD_REACTORS
330
29
102
}
330
29
100
AcDbVisualStyle
  2
Linepattern
 70
    14
177
     3
291
     1
 70
    58
 90
        2
176
     1
 90
        2
176
     1
 90
        0
176
     1
 90
        0
176
     1
 40
0.6
176
     1
 40
30.0
176
     1
 62
     7
176
     1
 90
        1
176
     1
 90
        4
176
     1
 62
     7
176
     1
 62
   257
176
     1
 90
        7
176
     1
 90
        7
176
     1
 40
1.0
176
     1
 90
        8
176
     1
 62
     7
176
     1
 40
1.0
176
     1
 90
        1
176
     1
 90
        6
176
     1
 90
        2
176
     1
 62
     7
176
     1
 90
        5
176
     1
 90
        0
176
     1
 90
        0
176
     1
290
     0
176
     1
 90
        1
176
     1
 40
0.0
176
     1
 90
        0
176
     1
290
     0
176
     1
290
     1
176
     1
290
     1
176
     1
290
     0
176
     1
290
     0
176
     1
290
     0
176
     1
290
     0
176
     1
290
     0
176
     1
290
     0
176
     1
 90
       50
176
     1
 40
0.0
176
     1
 40
1.0
176
     1
 90
        0
176
     1
 62
    18
420
        0
176
     1
 90
       50
176
     1
 90
        3
176
     1
 62
     5
420
      255
176
     1
290
     0
176
     1
 90
       50
176
     1
 90
       50
176
     1
 90
       50
176
     1
290
     0
176
     1
 90
       50
176
     1
 62
   256
176
     0
 40
1.0
176
     0
 90
        2
176
     1
  1
strokes_ogs.tif
176
     1
290
     0
176
     1
 40
1.0
176
     1
 40
1.0
176
     1
  0
VISUALSTYLE
  5
3B
102
{ACAD_REACTORS
330
29
102
}
330
29
100
AcDbVisualStyle
  2
OverhangOff
 70
    21
177
     3
291
     1
 70
    58
 90
        2
176
     0
 90
        2
176
     0
 90
        0
176
     0
 90
        0
176
     0
 40
0.6
176
     0
 40
30.0
176
     0
 62
     7
176
     0
 90
        1
176
     0
 90
        4
176
     0
 62
     7
176
     0
 62
   257
176
     0
 90
        1
176
     0
 90
        1
176
     0
 40
1.0
176
     0
 90
        9
176
     2
 62
     7
176
     0
 40
1.0
176
     0
 90
        1
176
     0
 90
        6
176
     0
 90
        2
176
     0
 62
     7
176
     0
 90
        5
176
     0
 90
        0
176
     0
 90
        0
176
     0
290
     0
176
     0
 90
        1
176
     0
 40
0.0
176
     0
 90
        0
176
     0
290
     0
176
     1
290
     1
176
     1
290
     1
176
     1
290
     0
176
     1
290
     0
176
     1
290
     0
176
     1
290
     0
176
     1
290
     0
176
     1
290
     0
176
     1
 90
       50
176
     1
 40
0.0
176
     1
 40
1.0
176
     1
 90
        0
176
     1
 62
    18
420
        0
176
     1
 90
       50
176
     1
 90
        3
176
     1
 62
     5
420
      255
176
     1
290
     0
176
     1
 90
       50
176
     1
 90
       50
176
     1
 90
       50
176
     1
290
     0
176
     1
 90
       50
176
     1
 62
   256
176
     0
 40
1.0
176
     0
 90
        2
176
     1
  1
strokes_ogs.tif
176
     1
290
     0
176
     1
 40
1.0
176
     1
 40
1.0
176
     1
  0
VISUALSTYLE
  5
33
102
{ACAD_REACTORS
330
29
102
}
330
29
100
AcDbVisualStyle
  2
Realistic
 70
     8
177
     3
291
     0
 70
    58
 90
        2
176
     1
 90
        2
176
     1
 90
        0
176
     1
 90
        0
176
     1
 40
0.6
176
     1
 40
30.0
176
     1
 62
     7
176
     1
 90
        1
176
     1
 90
        0
176
     1
 62
     7
176
     1
 62
   257
176
     1
 90
        1
176
     1
 90
        1
176
     1
 40
1.0
176
     1
 90
        8
176
     1
 62
     8
176
     1
 40
1.0
176
     1
 90
        1
176
     1
 90
        6
176
     1
 90
        2
176
     1
 62
     7
176
     1
 90
        5
176
     1
 90
        0
176
     1
 90
        0
176
     1
290
     0
176
     1
 90
       13
176
     1
 40
0.0
176
     1
 90
        0
176
     1
290
     0
176
     1
290
     1
176
     1
290
     1
176
     1
290
     0
176
     1
290
     0
176
     1
290
     0
176
     1
290
     0
176
     1
290
     0
176
     1
290
     0
176
     1
 90
       50
176
     1
 40
0.0
176
     1
 40
1.0
176
     1
 90
        0
176
     1
 62
    18
420
        0
176
     1
 90
       50
176
     1
 90
        3
176
     1
 62
     5
420
      255
176
     1
290
     0
176
     1
 90
       50
176
     1
 90
       50
176
     1
 90
       50
176
     1
290
     0
176
     1
 90
       50
176
     1
 62
   256
176
     0
 40
1.0
176
     0
 90
        2
176
     1
  1
strokes_ogs.tif
176
     1
290
     0
176
     1
 40
1.0
176
     1
 40
1.0
176
     1
  0
VISUALSTYLE
  5
2A9
102
{ACAD_REACTORS
330
29
102
}
330
29
100
AcDbVisualStyle
  2
Shaded
 70
    27
177
     3
291
     0
 70
    58
 90
        2
176
     1
 90
        2
176
     1
 90
        1
176
     1
 90
        2
176
     1
 40
0.6
176
     1
 40
30.0
176
     1
 62
     7
420
 16777215
176
     1
 90
        0
176
     1
 90
        4
176
     1
 62
     7
176
     1
 62
   257
176
     1
 90
        1
176
     1
 90
        1
176
     1
 40
1.0
176
     1
 90
        8
176
     1
 62
   257
176
     1
 40
1.0
176
     1
 90
        1
176
     1
 90
        6
176
     1
 90
        2
176
     1
 62
     8
420
  7895160
176
     1
 90
        3
176
     1
 90
        0
176
     1
 90
        0
176
     1
290
     0
176
     1
 90
        5
176
     1
 40
0.0
176
     1
 90
        0
176
     1
290
     0
176
     1
290
     1
176
     1
290
     1
176
     1
290
     0
176
     1
290
     0
176
     1
290
     0
176
     1
290
     0
176
     1
290
     0
176
     1
290
     0
176
     1
 90
       50
176
     1
 40
0.0
176
     1
 40
1.0
176
     1
 90
        0
176
     1
 62
    18
420
        0
176
     1
 90
       50
176
     1
 90
        3
176
     1
 62
     5
420
      255
176
     1
290
     0
176
     1
 90
       50
176
     1
 90
       50
176
     1
 90
       50
176
     1
290
     0
176
     1
 90
       50
176
     1
 62
   256
176
     0
 40
1.0
176
     0
 90
        2
176
     1
  1
strokes_ogs.tif
176
     1
290
     0
176
     1
 40
1.0
176
     1
 40
1.0
176
     1
  0
VISUALSTYLE
  5
2A8
102
{ACAD_REACTORS
330
29
102
}
330
29
100
AcDbVisualStyle
  2
Shaded with edges
 70
    26
177
     3
291
     0
 70
    58
 90
        2
176
     1
 90
        2
176
     1
 90
        1
176
     1
 90
        2
176
     1
 40
0.6
176
     1
 40
30.0
176
     1
 62
     7
420
 16777215
176
     1
 90
        1
176
     1
 90
       10
176
     1
 62
     7
176
     1
 62
   257
176
     1
 90
        2
176
     1
 90
        1
176
     1
 40
1.0
176
     1
 90
        8
176
     1
 62
   257
176
     1
 40
1.0
176
     1
 90
        1
176
     1
 90
        6
176
     1
 90
        2
176
     1
 62
     7
176
     1
 90
        3
176
     1
 90
        0
176
     1
 90
        0
176
     1
290
     0
176
     1
 90
        5
176
     1
 40
0.0
176
     1
 90
        0
176
     1
290
     0
176
     1
290
     1
176
     1
290
     1
176
     1
290
     0
176
     1
290
     0
176
     1
290
     0
176
     1
290
     0
176
     1
290
     0
176
     1
290
     0
176
     1
 90
       50
176
     1
 40
0.0
176
     1
 40
1.0
176
     1
 90
        0
176
     1
 62
    18
420
        0
176
     1
 90
       50
176
     1
 90
        3
176
     1
 62
     5
420
      255
176
     1
290
     0
176
     1
 90
       50
176
     1
 90
       50
176
     1
 90
       50
176
     1
290
     0
176
     1
 90
       50
176
     1
 62
   256
176
     0
 40
1.0
176
     0
 90
        2
176
     1
  1
strokes_ogs.tif
176
     1
290
     0
176
     1
 40
1.0
176
     1
 40
1.0
176
     1
  0
VISUALSTYLE
  5
2A5
102
{ACAD_REACTORS
330
29
102
}
330
29
100
AcDbVisualStyle
  2
Shades of Gray
 70
    23
177
     3
291
     0
 70
    58
 90
        2
176
     1
 90
        2
176
     1
 90
        3
176
     1
 90
        0
176
     1
 40
0.6
176
     1
 40
30.0
176
     1
 62
     7
420
 16777215
176
     1
 90
        2
176
     1
 90
        2
176
     1
 62
     7
176
     1
 62
     7
176
     1
 90
        1
176
     1
 90
        1
176
     1
 40
40.0
176
     1
 90
        8
176
     1
 62
     7
176
     1
 40
1.0
176
     1
 90
        1
176
     1
 90
        6
176
     1
 90
        2
176
     1
 62
     7
176
     1
 90
        3
176
     1
 90
        0
176
     1
 90
        0
176
     1
290
     0
176
     1
 90
        1
176
     1
 40
0.0
176
     1
 90
        0
176
     1
290
     0
176
     1
290
     1
176
     1
290
     1
176
     1
290
     0
176
     1
290
     0
176
     1
290
     0
176
     1
290
     0
176
     1
290
     0
176
     1
290
     0
176
     1
 90
       50
176
     1
 40
0.0
176
     1
 40
1.0
176
     1
 90
        0
176
     1
 62
    18
420
        0
176
     1
 90
       50
176
     1
 90
        3
176
     1
 62
     5
420
      255
176
     1
290
     0
176
     1
 90
       50
176
     1
 90
       50
176
     1
 90
       50
176
     1
290
     0
176
     1
 90
       50
176
     1
 62
   256
176
     0
 40
1.0
176
     0
 90
        2
176
     1
  1
strokes_ogs.tif
176
     1
290
     0
176
     1
 40
1.0
176
     1
 40
1.0
176
     1
  0
VISUALSTYLE
  5
2A6
102
{ACAD_REACTORS
330
29
102
}
330
29
100
AcDbVisualStyle
  2
Sketchy
 70
    24
177
     3
291
     0
 70
    58
 90
        1
176
     1
 90
        2
176
     1
 90
        2
176
     1
 90
        0
176
     1
 40
0.6
176
     1
 40
30.0
176
     1
 62
     7
420
 16777215
176
     1
 90
        2
176
     1
 90
        2
176
     1
 62
     7
176
     1
 62
     7
176
     1
 90
        1
176
     1
 90
        1
176
     1
 40
40.0
176
     1
 90
       11
176
     1
 62
     7
176
     1
 40
1.0
176
     1
 90
        1
176
     1
 90
        6
176
     1
 90
        2
176
     1
 62
     7
176
     1
 90
        6
176
     1
 90
        0
176
     1
 90
        0
176
     1
290
     0
176
     1
 90
        1
176
     1
 40
0.0
176
     1
 90
        0
176
     1
290
     0
176
     1
290
     1
176
     1
290
     1
176
     1
290
     0
176
     1
290
     0
176
     1
290
     0
176
     1
290
     0
176
     1
290
     0
176
     1
290
     0
176
     1
 90
       50
176
     1
 40
0.0
176
     1
 40
1.0
176
     1
 90
        0
176
     1
 62
    18
420
        0
176
     1
 90
       50
176
     1
 90
        3
176
     1
 62
     5
420
      255
176
     1
290
     0
176
     1
 90
       50
176
     1
 90
       50
176
     1
 90
       50
176
     1
290
     0
176
     1
 90
       50
176
     1
 62
   256
176
     0
 40
1.0
176
     0
 90
        2
176
     1
  1
strokes_ogs.tif
176
     1
290
     0
176
     1
 40
1.0
176
     1
 40
1.0
176
     1
  0
VISUALSTYLE
  5
36
102
{ACAD_REACTORS
330
29
102
}
330
29
100
AcDbVisualStyle
  2
Thicken
 70
    13
177
     3
291
     1
 70
    58
 90
        2
176
     1
 90
        2
176
     1
 90
        0
176
     1
 90
        0
176
     1
 40
0.6
176
     1
 40
30.0
176
     1
 62
     7
176
     1
 90
        1
176
     1
 90
        4
176
     1
 62
     7
176
     1
 62
   257
176
     1
 90
        1
176
     1
 90
        1
176
     1
 40
1.0
176
     1
 90
       12
176
     1
 62
     7
176
     1
 40
1.0
176
     1
 90
        1
176
     1
 90
        6
176
     1
 90
        2
176
     1
 62
     7
176
     1
 90
        5
176
     1
 90
        0
176
     1
 90
        0
176
     1
290
     0
176
     1
 90
        1
176
     1
 40
0.0
176
     1
 90
        0
176
     1
290
     0
176
     1
290
     1
176
     1
290
     1
176
     1
290
     0
176
     1
290
     0
176
     1
290
     0
176
     1
290
     0
176
     1
290
     0
176
     1
290
     0
176
     1
 90
       50
176
     1
 40
0.0
176
     1
 40
1.0
176
     1
 90
        0
176
     1
 62
    18
420
        0
176
     1
 90
       50
176
     1
 90
        3
176
     1
 62
     5
420
      255
176
     1
290
     0
176
     1
 90
       50
176
     1
 90
       50
176
     1
 90
       50
176
     1
290
     0
176
     1
 90
       50
176
     1
 62
   256
176
     0
 40
1.0
176
     0
 90
        2
176
     1
  1
strokes_ogs.tif
176
     1
290
     0
176
     1
 40
1.0
176
     1
 40
1.0
176
     1
  0
VISUALSTYLE
  5
2A3
102
{ACAD_REACTORS
330
29
102
}
330
29
100
AcDbVisualStyle
  2
Wireframe
 70
     5
177
     3
291
     0
 70
    58
 90
        0
176
     1
 90
        2
176
     1
 90
        0
176
     1
 90
        0
176
     1
 40
0.6
176
     1
 40
30.0
176
     1
 62
     7
420
 16777215
176
     1
 90
        1
176
     1
 90
        4
176
     1
 62
     7
176
     1
 62
   257
176
     1
 90
        1
176
     1
 90
        1
176
     1
 40
1.0
176
     1
 90
        0
176
     1
 62
   257
176
     1
 40
1.0
176
     1
 90
        1
176
     1
 90
        6
176
     1
 90
        2
176
     1
 62
     7
176
     1
 90
        3
176
     1
 90
        0
176
     1
 90
        0
176
     1
290
     0
176
     1
 90
        1
176
     1
 40
0.0
176
     1
 90
        0
176
     1
290
     0
176
     1
290
     1
176
     1
290
     1
176
     1
290
     0
176
     1
290
     0
176
     1
290
     0
176
     1
290
     0
176
     1
290
     0
176
     1
290
     0
176
     1
 90
       50
176
     1
 40
0.0
176
     1
 40
1.0
176
     1
 90
        0
176
     1
 62
    18
420
        0
176
     1
 90
       50
176
     1
 90
        3
176
     1
 62
     5
420
      255
176
     1
290
     0
176
     1
 90
       50
176
     1
 90
       50
176
     1
 90
       50
176
     1
290
     0
176
     1
 90
       50
176
     1
 62
   256
176
     0
 40
1.0
176
     0
 90
        2
176
     1
  1
strokes_ogs.tif
176
     1
290
     0
176
     1
 40
1.0
176
     1
 40
1.0
176
     1
  0
VISUALSTYLE
  5
2A7
102
{ACAD_REACTORS
330
29
102
}
330
29
100
AcDbVisualStyle
  2
X-Ray
 70
    25
177
     3
291
     0
 70
    58
 90
        2
176
     1
 90
        2
176
     1
 90
        1
176
     1
 90
        1
176
     1
 40
0.5
176
     1
 40
30.0
176
     1
 62
     7
420
 16777215
176
     1
 90
        1
176
     1
 90
        0
176
     1
 62
     7
176
     1
 62
   257
176
     1
 90
        1
176
     1
 90
        1
176
     1
 40
1.0
176
     1
 90
        8
176
     1
 62
     7
176
     1
 40
1.0
176
     1
 90
        1
176
     1
 90
        6
176
     1
 90
        2
176
     1
 62
     7
176
     1
 90
        3
176
     1
 90
        0
176
     1
 90
        0
176
     1
290
     0
176
     1
 90
       13
176
     1
 40
0.0
176
     1
 90
        0
176
     1
290
     0
176
     1
290
     1
176
     1
290
     1
176
     1
290
     0
176
     1
290
     0
176
     1
290
     0
176
     1
290
     0
176
     1
290
     0
176
     1
290
     0
176
     1
 90
       50
176
     1
 40
0.0
176
     1
 40
1.0
176
     1
 90
        0
176
     1
 62
    18
420
        0
176
     1
 90
       50
176
     1
 90
        3
176
     1
 62
     5
420
      255
176
     1
290
     0
176
     1
 90
       50
176
     1
 90
       50
176
     1
 90
       50
176
     1
290
     0
176
     1
 90
       50
176
     1
 62
   256
176
     0
 40
1.0
176
     0
 90
        2
176
     1
  1
strokes_ogs.tif
176
     1
290
     0
176
     1
 40
1.0
176
     1
 40
1.0
176
     1
  0
DICTIONARYVAR
  5
199
102
{ACAD_REACTORS
330
195
102
}
330
195
100
DictionaryVariables
280
     0
  1
1:1
  0
DICTIONARYVAR
  5
197
102
{ACAD_REACTORS
330
195
102
}
330
195
100
DictionaryVariables
280
     0
  1
STANDARD
  0
DICTIONARYVAR
  5
196
102
{ACAD_REACTORS
330
195
102
}
330
195
100
DictionaryVariables
280
     0
  1
STANDARD
  0
DICTIONARYVAR
  5
A11
102
{ACAD_REACTORS
330
195
102
}
330
195
100
DictionaryVariables
280
     0
  1
Metric50
  0
DICTIONARYVAR
  5
A12
102
{ACAD_REACTORS
330
195
102
}
330
195
100
DictionaryVariables
280
     0
  1
Metric50
  0
DICTIONARYVAR
  5
1A0
102
{ACAD_REACTORS
330
195
102
}
330
195
100
DictionaryVariables
280
     0
  1
1
  0
DICTIONARYVAR
  5
CEB
102
{ACAD_REACTORS
330
195
102
}
330
195
100
DictionaryVariables
280
     0
  1
2
  0
DICTIONARYVAR
  5
19F
102
{ACAD_REACTORS
330
195
102
}
330
195
100
DictionaryVariables
280
     0
  1
1
  0
DICTIONARYVAR
  5
19E
102
{ACAD_REACTORS
330
195
102
}
330
195
100
DictionaryVariables
280
     0
  1
0
  0
DICTIONARYVAR
  5
19B
102
{ACAD_REACTORS
330
195
102
}
330
195
100
DictionaryVariables
280
     0
  1
0
  0
DICTIONARYVAR
  5
19C
102
{ACAD_REACTORS
330
195
102
}
330
195
100
DictionaryVariables
280
     0
  1
0
  0
DICTIONARYVAR
  5
19A
102
{ACAD_REACTORS
330
195
102
}
330
195
100
DictionaryVariables
280
     0
  1
2
  0
DICTIONARYVAR
  5
198
102
{ACAD_REACTORS
330
195
102
}
330
195
100
DictionaryVariables
280
     0
  1
1
  0
DICTIONARYVAR
  5
19D
102
{ACAD_REACTORS
330
195
102
}
330
195
100
DictionaryVariables
280
     0
  1
127
  0
DICTIONARY
  5
A0E
330
2C3
100
AcDbDictionary
280
     1
281
     1
  3
ACAD_XREC_ROUNDTRIP
360
E60
  0
DICTIONARY
  5
A0A
330
2AD
100
AcDbDictionary
280
     1
281
     1
  3
ACAD_XREC_ROUNDTRIP
360
E5E
  0
DICTIONARY
  5
20F
330
7A
100
AcDbDictionary
280
     1
281
     1
  3
AcPublish_PlotSettingsOverride
360
CEA
  0
DICTIONARY
  5
1A
330
19
100
AcDbDictionary
280
     1
281
     1
  3
BUMPTILE
360
1C
  3
DIFFUSETILE
360
1B
  3
OPACITYTILE
360
1F
  3
REFLECTIONTILE
360
1E
  3
REFRACTIONTILE
360
20
  3
SPECULARTILE
360
1D
  0
DICTIONARY
  5
12
330
11
100
AcDbDictionary
280
     1
281
     1
  3
BUMPTILE
360
14
  3
DIFFUSETILE
360
13
  3
OPACITYTILE
360
17
  3
REFLECTIONTILE
360
16
  3
REFRACTIONTILE
360
18
  3
SPECULARTILE
360
15
  0
DICTIONARY
  5
22
330
21
100
AcDbDictionary
280
     1
281
     1
  3
BUMPTILE
360
24
  3
DIFFUSETILE
360
23
  3
OPACITYTILE
360
27
  3
REFLECTIONTILE
360
26
  3
REFRACTIONTILE
360
28
  3
SPECULARTILE
360
25
  0
DICTIONARY
  5
A0C
330
2C2
100
AcDbDictionary
280
     1
281
     1
  3
ACAD_XREC_ROUNDTRIP
360
E5F
  0
DICTIONARY
  5
A08
330
2AB
100
AcDbDictionary
280
     1
281
     1
  3
ACAD_XREC_ROUNDTRIP
360
E5D
  0
DICTIONARY
  5
132
330
70
100
AcDbDictionary
280
     1
281
     1
  3
ACAD_ROUNDTRIP_2008_TABLESTYLE_CELLSTYLEMAP
360
E4E
  0
XRECORD
  5
E60
102
{ACAD_REACTORS
330
A0E
102
}
330
A0E
100
AcDbXrecord
280
     1
102
DISPLAYNAME
  1
Imperial24
102
FLAGS
 90
        0
  0
XRECORD
  5
E5E
102
{ACAD_REACTORS
330
A0A
102
}
330
A0A
100
AcDbXrecord
280
     1
102
DISPLAYNAME
  1
Metric50
102
FLAGS
 90
        0
  0
PLOTSETTINGS
  5
CEA
102
{ACAD_REACTORS
330
20F
102
}
330
20F
100
AcDbPlotSettings
  1

  2
PDFCreator
  4
ANSI_A_(8.50_x_11.00_Inches)
  6

 40
10.65741634368896
 41
11.41940307617187
 42
11.03842163085937
 43
11.71575927734375
 44
209.8886566162109
 45
297.0530090332031
 46
0.0
 47
0.0
 48
276.736016512745
 49
1887.373417734615
140
284.8074893050687
141
1902.215077634811
142
1.0
143
0.0788641139833122
 70
 11952
 72
     1
 73
     1
 74
     4
  7

 75
     0
147
12.68003848000628
 76
     0
 77
     2
 78
   300
148
-276.736016512745
149
-1887.373417734615
1001
ACAD_PSEXT
1000
PDFCreator
1000
PDFCreator
1000
PDFCreator:
1000
eDoc Printer
1070
     0
  0
XRECORD
  5
1C
102
{ACAD_REACTORS
330
1A
102
}
330
1A
100
AcDbXrecord
280
     1
270
     1
271
     1
  0
XRECORD
  5
1B
102
{ACAD_REACTORS
330
1A
102
}
330
1A
100
AcDbXrecord
280
     1
270
     1
271
     1
  0
XRECORD
  5
1F
102
{ACAD_REACTORS
330
1A
102
}
330
1A
100
AcDbXrecord
280
     1
270
     1
271
     1
  0
XRECORD
  5
1E
102
{ACAD_REACTORS
330
1A
102
}
330
1A
100
AcDbXrecord
280
     1
270
     1
271
     1
  0
XRECORD
  5
20
102
{ACAD_REACTORS
330
1A
102
}
330
1A
100
AcDbXrecord
280
     1
270
     1
271
     1
  0
XRECORD
  5
1D
102
{ACAD_REACTORS
330
1A
102
}
330
1A
100
AcDbXrecord
280
     1
270
     1
271
     1
  0
XRECORD
  5
14
102
{ACAD_REACTORS
330
12
102
}
330
12
100
AcDbXrecord
280
     1
270
     1
271
     1
  0
XRECORD
  5
13
102
{ACAD_REACTORS
330
12
102
}
330
12
100
AcDbXrecord
280
     1
270
     1
271
     1
  0
XRECORD
  5
17
102
{ACAD_REACTORS
330
12
102
}
330
12
100
AcDbXrecord
280
     1
270
     1
271
     1
  0
XRECORD
  5
16
102
{ACAD_REACTORS
330
12
102
}
330
12
100
AcDbXrecord
280
     1
270
     1
271
     1
  0
XRECORD
  5
18
102
{ACAD_REACTORS
330
12
102
}
330
12
100
AcDbXrecord
280
     1
270
     1
271
     1
  0
XRECORD
  5
15
102
{ACAD_REACTORS
330
12
102
}
330
12
100
AcDbXrecord
280
     1
270
     1
271
     1
  0
XRECORD
  5
24
102
{ACAD_REACTORS
330
22
102
}
330
22
100
AcDbXrecord
280
     1
270
     1
271
     1
  0
XRECORD
  5
23
102
{ACAD_REACTORS
330
22
102
}
330
22
100
AcDbXrecord
280
     1
270
     1
271
     1
  0
XRECORD
  5
27
102
{ACAD_REACTORS
330
22
102
}
330
22
100
AcDbXrecord
280
     1
270
     1
271
     1
  0
XRECORD
  5
26
102
{ACAD_REACTORS
330
22
102
}
330
22
100
AcDbXrecord
280
     1
270
     1
271
     1
  0
XRECORD
  5
28
102
{ACAD_REACTORS
330
22
102
}
330
22
100
AcDbXrecord
280
     1
270
     1
271
     1
  0
XRECORD
  5
25
102
{ACAD_REACTORS
330
22
102
}
330
22
100
AcDbXrecord
280
     1
270
     1
271
     1
  0
XRECORD
  5
E5F
102
{ACAD_REACTORS
330
A0C
102
}
330
A0C
100
AcDbXrecord
280
     1
102
DISPLAYNAME
  1
Imperial24
102
FLAGS
 90
        0
  0
XRECORD
  5
E5D
102
{ACAD_REACTORS
330
A08
102
}
330
A08
100
AcDbXrecord
280
     1
102
DISPLAYNAME
  1
Metric50
102
FLAGS
 90
        0
  0
CELLSTYLEMAP
  5
E4E
102
{ACAD_REACTORS
330
132
102
}
330
132
100
AcDbCellStyleMap
 90
        3
300
CELLSTYLE
  1
TABLEFORMAT_BEGIN
 90
        5
170
     1
 91
        0
 92
    32768
 62
   257
 93
        1
300
CONTENTFORMAT
  1
CONTENTFORMAT_BEGIN
 90
        0
 91
        0
 92
      512
 93
        0
300

 40
0.0
140
1.0
 94
        5
 62
     0
340
60
144
0.25
309
CONTENTFORMAT_END
171
     1
301
MARGIN
  1
CELLMARGIN_BEGIN
 40
0.06
 40
0.06
 40
0.06
 40
0.06
 40
0.18
 40
0.18
309
CELLMARGIN_END
 94
        6
 95
        1
302
GRIDFORMAT
  1
GRIDFORMAT_BEGIN
 90
        0
 91
        1
 62
     0
 92
       -2
340
0
 93
        0
 40
0.045
309
GRIDFORMAT_END
 95
        2
302
GRIDFORMAT
  1
GRIDFORMAT_BEGIN
 90
        0
 91
        1
 62
     0
 92
       -2
340
0
 93
        0
 40
0.045
309
GRIDFORMAT_END
 95
        4
302
GRIDFORMAT
  1
GRIDFORMAT_BEGIN
 90
        0
 91
        1
 62
     0
 92
       -2
340
0
 93
        0
 40
0.045
309
GRIDFORMAT_END
 95
        8
302
GRIDFORMAT
  1
GRIDFORMAT_BEGIN
 90
        0
 91
        1
 62
     0
 92
       -2
340
0
 93
        0
 40
0.045
309
GRIDFORMAT_END
 95
       16
302
GRIDFORMAT
  1
GRIDFORMAT_BEGIN
 90
        0
 91
        1
 62
     0
 92
       -2
340
0
 93
        0
 40
0.045
309
GRIDFORMAT_END
 95
       32
302
GRIDFORMAT
  1
GRIDFORMAT_BEGIN
 90
        0
 91
        1
 62
     0
 92
       -2
340
0
 93
        0
 40
0.045
309
GRIDFORMAT_END
309
TABLEFORMAT_END
  1
CELLSTYLE_BEGIN
 90
        1
 91
        1
300
_TITLE
309
CELLSTYLE_END
300
CELLSTYLE
  1
TABLEFORMAT_BEGIN
 90
        5
170
     1
 91
        0
 92
        0
 62
   257
 93
        1
300
CONTENTFORMAT
  1
CONTENTFORMAT_BEGIN
 90
        0
 91
        0
 92
      512
 93
        0
300

 40
0.0
140
1.0
 94
        5
 62
     0
340
60
144
0.18
309
CONTENTFORMAT_END
171
     1
301
MARGIN
  1
CELLMARGIN_BEGIN
 40
0.06
 40
0.06
 40
0.06
 40
0.06
 40
0.18
 40
0.18
309
CELLMARGIN_END
 94
        6
 95
        1
302
GRIDFORMAT
  1
GRIDFORMAT_BEGIN
 90
        0
 91
        1
 62
     0
 92
       -2
340
0
 93
        0
 40
0.045
309
GRIDFORMAT_END
 95
        2
302
GRIDFORMAT
  1
GRIDFORMAT_BEGIN
 90
        0
 91
        1
 62
     0
 92
       -2
340
0
 93
        0
 40
0.045
309
GRIDFORMAT_END
 95
        4
302
GRIDFORMAT
  1
GRIDFORMAT_BEGIN
 90
        0
 91
        1
 62
     0
 92
       -2
340
0
 93
        0
 40
0.045
309
GRIDFORMAT_END
 95
        8
302
GRIDFORMAT
  1
GRIDFORMAT_BEGIN
 90
        0
 91
        1
 62
     0
 92
       -2
340
0
 93
        0
 40
0.045
309
GRIDFORMAT_END
 95
       16
302
GRIDFORMAT
  1
GRIDFORMAT_BEGIN
 90
        0
 91
        1
 62
     0
 92
       -2
340
0
 93
        0
 40
0.045
309
GRIDFORMAT_END
 95
       32
302
GRIDFORMAT
  1
GRIDFORMAT_BEGIN
 90
        0
 91
        1
 62
     0
 92
       -2
340
0
 93
        0
 40
0.045
309
GRIDFORMAT_END
309
TABLEFORMAT_END
  1
CELLSTYLE_BEGIN
 90
        2
 91
        1
300
_HEADER
309
CELLSTYLE_END
300
CELLSTYLE
  1
TABLEFORMAT_BEGIN
 90
        5
170
     1
 91
        0
 92
        0
 62
   257
 93
        1
300
CONTENTFORMAT
  1
CONTENTFORMAT_BEGIN
 90
        0
 91
        0
 92
      512
 93
        0
300

 40
0.0
140
1.0
 94
        2
 62
     0
340
60
144
0.18
309
CONTENTFORMAT_END
171
     1
301
MARGIN
  1
CELLMARGIN_BEGIN
 40
0.06
 40
0.06
 40
0.06
 40
0.06
 40
0.18
 40
0.18
309
CELLMARGIN_END
 94
        6
 95
        1
302
GRIDFORMAT
  1
GRIDFORMAT_BEGIN
 90
        0
 91
        1
 62
     0
 92
       -2
340
0
 93
        0
 40
0.045
309
GRIDFORMAT_END
 95
        2
302
GRIDFORMAT
  1
GRIDFORMAT_BEGIN
 90
        0
 91
        1
 62
     0
 92
       -2
340
0
 93
        0
 40
0.045
309
GRIDFORMAT_END
 95
        4
302
GRIDFORMAT
  1
GRIDFORMAT_BEGIN
 90
        0
 91
        1
 62
     0
 92
       -2
340
0
 93
        0
 40
0.045
309
GRIDFORMAT_END
 95
        8
302
GRIDFORMAT
  1
GRIDFORMAT_BEGIN
 90
        0
 91
        1
 62
     0
 92
       -2
340
0
 93
        0
 40
0.045
309
GRIDFORMAT_END
 95
       16
302
GRIDFORMAT
  1
GRIDFORMAT_BEGIN
 90
        0
 91
        1
 62
     0
 92
       -2
340
0
 93
        0
 40
0.045
309
GRIDFORMAT_END
 95
       32
302
GRIDFORMAT
  1
GRIDFORMAT_BEGIN
 90
        0
 91
        1
 62
     0
 92
       -2
340
0
 93
        0
 40
0.045
309
GRIDFORMAT_END
309
TABLEFORMAT_END
  1
CELLSTYLE_BEGIN
 90
        3
 91
        2
300
_DATA
309
CELLSTYLE_END
  0
ENDSEC
  0
SECTION
  2
ACDSDATA
 70
     2
 71
     6
  0
ACDSSCHEMA
 90
        0
  1
AcDb_Thumbnail_Schema
  2
AcDbDs::ID
280
    10
 91
        8
  2
Thumbnail_Data
280
    15
 91
        0
101
ACDSRECORD
 95
        0
 90
        1
  2
AcDbDs::TreatedAsObjectData
280
     1
291
     1
101
ACDSRECORD
 95
        0
 90
        2
  2
AcDbDs::Legacy
280
     1
291
     1
101
ACDSRECORD
  1
AcDbDs::ID
 90
        3
  2
AcDs:Indexable
280
     1
291
     1
101
ACDSRECORD
  1
AcDbDs::ID
 90
        4
  2
AcDbDs::HandleAttribute
280
     7
282
     1
  0
ACDSSCHEMA
 90
        1
  1
AcDbDs::TreatedAsObjectDataSchema
  2
AcDbDs::TreatedAsObjectData
280
     1
 91
        0
  0
ACDSSCHEMA
 90
        2
  1
AcDbDs::LegacySchema
  2
AcDbDs::Legacy
280
     1
 91
        0
  0
ACDSSCHEMA
 90
        3
  1
AcDbDs::IndexedPropertySchema
  2
AcDs:Indexable
280
     1
 91
        0
  0
ACDSSCHEMA
 90
        4
  1
AcDbDs::HandleAttributeSchema
  2
AcDbDs::HandleAttribute
280
     7
 91
        1
284
     1
  0
ACDSRECORD
 90
        0
  2
AcDbDs::ID
280
    10
320
7A
  2
Thumbnail_Data
280
    15
 94
     2221
310
89504E470D0A1A0A0000000D49484452000001000000007E0803000000FCF33F5100000300504C5445212830000000C8C8C80000000000000000000000000000000000000000000000000000330000660000990000CC0000FF0033000033330033660033990033CC0033FF0066000066330066660066990066CC0066FF0099
310
000099330099660099990099CC0099FF00CC0000CC3300CC6600CC9900CCCC00CCFF00FF0000FF3300FF6600FF9900FFCC00FFFF3300003300333300663300993300CC3300FF3333003333333333663333993333CC3333FF3366003366333366663366993366CC3366FF3399003399333399663399993399CC3399FF33CC00
310
33CC3333CC6633CC9933CCCC33CCFF33FF0033FF3333FF6633FF9933FFCC33FFFF6600006600336600666600996600CC6600FF6633006633336633666633996633CC6633FF6666006666336666666666996666CC6666FF6699006699336699666699996699CC6699FF66CC0066CC3366CC6666CC9966CCCC66CCFF66FF0066
310
FF3366FF6666FF9966FFCC66FFFF9900009900339900669900999900CC9900FF9933009933339933669933999933CC9933FF9966009966339966669966999966CC9966FF9999009999339999669999999999CC9999FF99CC0099CC3399CC6699CC9999CCCC99CCFF99FF0099FF3399FF6699FF9999FFCC99FFFFCC0000CC00
310
33CC0066CC0099CC00CCCC00FFCC3300CC3333CC3366CC3399CC33CCCC33FFCC6600CC6633CC6666CC6699CC66CCCC66FFCC9900CC9933CC9966CC9999CC99CCCC99FFCCCC00CCCC33CCCC66CCCC99CCCCCCCCCCFFCCFF00CCFF33CCFF66CCFF99CCFFCCCCFFFFFF0000FF0033FF0066FF0099FF00CCFF00FFFF3300FF3333
310
FF3366FF3399FF33CCFF33FFFF6600FF6633FF6666FF6699FF66CCFF66FFFF9900FF9933FF9966FF9999FF99CCFF99FFFFCC00FFCC33FFCC66FFCC99FFCCCCFFCCFFFFFF00FFFF33FFFF66FFFF99FFFFCCFFFFFF0000000D0D0D1A1A1A2828283535354343435050505D5D5D6B6B6B787878868686939393A1A1A1AEAEAEBB
310
BBBBC9C9C9D6D6D6E4E4E4F1F1F1FFFFFF000000000000000000000000000000000000000000000000000000000000B21171F60000013A4944415478DAEDDCC16E82401486D179FFF7FDF74D756C62294C7123DE7BBE051A8D8B39810189CE189224499274BABC5E8DF1EFC38CD5205379FCDFEF6435C814DF0196832C02B0
310
778003E80270F85E1A038CE5C9AE3AC0CF74D81BE0E854517912FCCF7560158093D7C8CF574A9F0F90D11B206FF92C000000005C0FE031C1679E02B6D73C290D903BC17CE97643E87E53E8F1E4D73DA28A006303707B9C0F0D009EF780B9CDDCCC6DF13920F9630F6872089CFD36E834080000000000000000000000000000
310
0000000000000000003E19E0E44FC301F402D82A00300902E875080070080000000040D3B300001742004C82000000000000000000C500E65F425E582728C5FF3C3D160229B47EC01EC0C100CBAC1F90E5B7A0FDC3A3C6625A79C327AFB613745E4B4D922449922449922449922449D2E5FB0254EFF3C32B7DB53900000000
310
49454E44AE4260825FA71E3404CCB14AB5E66B4AE2FC8B80966D30F999A1AF47254C4740742F0001B905ACC1E405DCDE10497D7EBE4140E60E0AD114D06AA21136D111CA7F69A32497FFDA46A71220D74949ECFA078B402E7F95D2F5F29FFBE979FC727E05A516A0D754F3D85354B2ADAA4937950500000000000000000000
310
807FE117316A006338D237920000000049454E44AE42608232A3A1503C0018AA8593E6E9562D0068E50153A57CAC9D8FA3330085AC2540B30AF001807EEA8B3580856CB10086254CE3BF13CC97C0E4F853999C682A9DAFD8080480300800C804010000000000EC0078C314000000E300080000401980E2CB0D00840230BF04
310
0000510051E0D3BE000000803DC036808C085C960902805400E697802500E637414481EF6C780080250000000000E6DF0B000000E409606108000000005C92070340AE002C2642000000007045180400EB0090090200F60000D00C40721E505B07804C10000000003E160601004B000000000050128BD91C01401600C54B20
310
EEE703AC00B0B80902000000C0056170BB9302806C00E69700364100000000401EF0D68E0900BA01985F020020473FFE9C1E000000000000000000009CD1090006003073A3935503600ECF3F337F1800734600F8B88DFA5FDD78A289298971FBD0BC07846D612266CB007A1FB00DC0BA0768CF040100009657DF6A6200FC76
310
CDF7CF452BA7E366ECD7752FD5EE68250D8077EEEFEDB196716F8FB73FB7BF377704C0FFBB39B71D15E701D36C6E35EE8E2D0637A3954C00EBF6131A74A141791EE02B5FFA6A770F68E7D71F7B40D57CAE020F786CA7F13E8C3C7ECBA0073CBCFC3DA072953FDAE7CA9F32E001A52B557880DBCEE3B80738FFF0C71E506AD8
310
03769594D6A3C0DD5014789907FC5ACF03BC1A0F581AB3F6001FD8037C00C02A4AAC3C202BFD0100C13DE0B1CA14523C206700CF187E7F4679B7970B3ADFE580D55E9EE89E0FDF3CF6F244411EE0DDF39DE0E3F63CDEDDFA6DDDCFC3954D6733E6D76FF99E00BC6B5B7B8F93EA019714443206704D492C2F00A7CD6125FA01
310
A056FF0D01E01306353F02DC7C50D15F155D4FD7DB7E48D51F6951417300ADE0F6395E580040730F98F715F1FA9500E8649F01909FFED84DA05B02C508A018568411006A6300005C6B5496FACF59C58A009C328B15E907803386B126FD00708D6919EBBFC4B8ACF59FB08E99591180EF4782CCF527D8C7837466A2782FC81D
310
40BC813C48674E7082ECF5C79BC8B4FCBD122DFAA38DE41E42CA1E20427FAC99BD74A6780F10A23FCDD0D02F145900901202C4E8FF92A982F47FC55851FA5382A14EFD49C150A5FED57FBEF326805AA0FEC85963A5D31F6D386BD61FE3BAACD5FD63678F154F7FD404B2EAE98F10C1EAE5BF10C206E407C5B009F901416C44
310
FEA1283623BF1356EFD503D6F76895BFAB6F0140BBF8B9CE412A6F7AECB4C3BF8C80868686867655FB0FF7C9C6491CD9CEF70000000049454E44AE426082
  0
ENDSEC
  0
EOF
